PrimaNota.ru - самый крупный в мире бесплатный архив песенных текстов, аккордов, табулатур и нот


Samson En Gert - Verjaardag - аккорды и текст, видео

Регистрация Запомнить меня
Войти через:  Facebook Google Twitter Vk Yandex Mail.ru

Samson En Gert - Verjaardag - аккорды и текст, видео

Печатать
Просмотров: 76
Verjaardag
Samson En Gert
      D     A     G     D#    A#    G#
e ¦---2-----0-----3-----6-----6-----4---|
B ¦---3-----2-----0-----8-----6-----4---|
G ¦---2-----2-----0-----8-----7-----5---|
D ¦---0-----2-----0-----8-----8-----6---|
A ¦---×-----0-----2-----6-----8-----6---|
E ¦---×-----×-----3-----x-----6-----4---|


Riff A
  D
e|-------------|-------------|-----------------|------------|
B|-7--77778-8--|-7--77775-5--|-7--77778-8-88-8-|-77-55------|
G|-------------|-------------|-----------------|-------77---|
D|-------------|-------------|-----------------|------------|
A|-------------|-------------|-----------------|------------|
E|-------------|-------------|-----------------|------------|

Riff B
  D#
e|-------------|-------------|-----------------|------------|
B|-8--88889-9--|-8--88886-6--|-8--88889-9-99-9-|-88-66------|
G|-------------|-------------|-----------------|-------88---|
D|-------------|-------------|-----------------|------------|
A|-------------|-------------|-----------------|------------|
E|-------------|-------------|-----------------|------------|


Intro (Riff A 2×)

    D
Het is een tijd geleden 
       A
't was op dezelfde dag
dat ik als pasgeboren hondje 
D
in mijn mandje lag

en Gert mijn lieve baasje 
    G
die nam me mee naar huis
   A
en nu beleven we samen 
                D
avonturen op de buis

Riff A

D
Samson beste kerel 
   A
ik kam alvast je haar

je beste vrienden zijn er 
   D
de koekjes staan al klaar

het huis is opgevrolijkt 
   G
er is een mooie taart
   A
en ik beloof je heilig 
                         D
ik trap nooit meer op je staart


refrein:
D                          A
want het is Samson zijn verjaardag
                            D
en hij weet dat als het aan ons lag
                             G
dan was het elke dag zijn verjaardag
           D            A
en vierden we een leven lang 
            D
gewoon maar feest

Riff A

D
Samson heel lief hondje
A
  gefeliciteerd
een trouwe vriend als jij 
           D
wordt door iedereen begeerd

en daarom als cadeautje
     G
geef ik je deze bon
A
voor een gratis knipbeurt 
              D
in mijn kapsalon


refrein 2x

(Let op modulatie, halve toon hoger)

Riff BD#
Vrienden welbedankt
    A# 
dit feest is erg leuk
ik heb een reuzelol 
       D#
ik amuseer mij hier een breuk

en overal geschater 
   G#
en overal gelach
   A# 
en op onze bordjes 
                      D#
alles wat ik zo graag mag

refrein 4x
D#                         A#
want het is Samson zijn verjaardag
                            D#
en hij weet dat als het aan ons lag
                             G#
dan was het elke dag zijn verjaardag
           D#           A#
en vierden we een leven lang 
            D#
gewoon maar feest
Добавлено: 29.12.2015
Другие материалы по этой песне:
  • Аккорды и текст

Страница создана 29.12.2015
http://primanota.ru/samson-en-gert/verjaardag-chords.htm
Привет, Гость.
Предлагаем пройти революционный курс по гитаре.
Подарок от PrimaNota.Ru, забирай!