PrimaNota.ru - самый крупный в мире бесплатный архив песенных текстов, аккордов, табулатур и нот


Samson En Gert - Piraten Potpourri - аккорды и текст, видео

Регистрация Запомнить меня
Войти через:  Facebook Google Twitter Vk Yandex Mail.ru

Samson En Gert - Piraten Potpourri - аккорды и текст, видео

Печатать
Просмотров: 76
Piraten Potpourri
Samson En Gert
      F     C     Dm    Gm    Bb    G     Bbm        
e ¦---1-----0-----5-----3-----6-----3-----6---|
B ¦---1-----1-----6-----3-----6-----3-----6---|
G ¦---2-----0-----7-----3-----7-----4-----6---|
D ¦---3-----2-----7-----5-----8-----5-----8---|
A ¦---3-----3-----5-----5-----8-----5-----8---|
E ¦---1-----×-----x-----3-----6-----3-----6---|

      F#    G#    C#    D     Ebm   B     Fm        
e ¦---2-----6-----4-----2-----6-----2-----1---|
B ¦---2-----6-----6-----3-----7-----4-----1---|
G ¦---3-----5-----6-----2-----8-----4-----2---|
D ¦---4-----6-----6-----0-----8-----4-----3---|
A ¦---4-----6-----4-----x-----6-----2-----3---|
E ¦---2-----4-----x-----x-----x-----x-----1---|
 
      Eb    Cm    Ab     
e ¦---6-----4-----4---|
B ¦---8-----4-----4---|
G ¦---8-----5-----5---|
D ¦---8-----5-----6---|
A ¦---6-----3-----6---|
E ¦---×-----×-----4---|


Intro
Intromelodie:
e|---------------------|--------------------|-------------------|--------------------|
B|---------------------|--------------------|-------------------|--------------------|
G|------------10-9-10--|--------------7-----|-------------------|--------------------|
D|-7-8-10--10----------|-7-10-8--8-10---10--|-10-8-7--7-8-10-10-|-10-8-7--8--12--10--|
A|---------------------|--------------------|-------------------|--------------------|
E|---------------------|--------------------|-------------------|--------------------|

e|-----------------|--------------------|-------------------|---------------------|
B|-----------------|--------------------|-------------------|---------------------|
G|-----------------|--------------7-----|-------------------|---------------------|
D|-7-8-10--11--12--|-7-10-8--8-10---10--|-10-8-7--7-8-10-10-|-10-8-7--10--10------|
A|-----------------|--------------------|-------------------|-----------------8---|
E|-----------------|--------------------|-------------------|---------------------|

Introakkoorden:
F C Dm
Gm Dm C
F Bb
G C
F C Dm
Gm Dm C
F Bb 
C C F

           F     C      Dm
wij zijn piraten van de zee
          Gm        Dm         C
en al wie zin heeft vaart maar mee
           F         Bb        Gm         C
wij zijn piraten, piraten, piraten van de zee

           F     C      Dm
wij zijn piraten van de zee
          Gm        Dm         C
en al wie zin heeft vaart maar mee
           F         Bb        C          F
wij zijn piraten, piraten, piraten van de zee

F

     F             Dm
mijn vader zei me: Gertjelief,
     G              C
word bakker of word boer
     F            Dm            Bb   C   F
word handelaar in schapekaas of papegaaievoer
     Bb               F
mijn moeder zei: word machinist
   G             C
of stoker op een trein, maar ik zei:
       Dm        C       Bb   C   F
als ik groot ben word ik kaperkapitein

Tussenspelmelodie:
e|111213---------111213---------|-------------------------------|
B|-------111111---------111111--|-13-11-13-11-9--13-11-13-11-9--|
G|------------------------------|-------------------------------|
D|------------------------------|-------------------------------|
A|------------------------------|-------------------------------|
E|------------------------------|-------------------------------|

e|111213---------111213---------|-------------------------|
B|-------111111---------111111--|-13-14-13-11-13-11-9-11--|
G|------------------------------|-------------------------|
D|------------------------------|-------------------------|
A|------------------------------|-------------------------|
E|------------------------------|-------------------------|
*Dit zijn geen 1en, 2en, enzovoort. Het zijn 11en, 12en...

Tussenspelakkoorden
Bbm...  F# G# F# G#
Bbm...  F# G# Bbm

       Bbm
doe je best voor de baas
        G#     F      Bbm
jaag de ratten van de kaas
F#   C#     G#            F# G# Bbm
mooi is het leven van een kaper
        Bbm
pak die tros, pak die lijn
       G#            Bbm
vis de ratten uit de wijn
F#   C#     G#            F#   G#  Bbm
mooi is het leven van een kaperkapitein

Tussenspelmelodie:
e|-------------------------|--------------------------|
B|-11-------------11-13-11-|-11----------11-----------|
G|----13-11-13-13----------|----13-11-13----13--8-10--|
D|-------------------------|--------------------------|
A|-------------------------|--------------------------|
E|-------------------------|--------------------------|

e|-------------------------|----------------|
B|-11-------------11-13-11-|-7-6------------|
G|----13-11-13-13----------|-----8-10--6-8--|
D|-------------------------|----------------|
A|-------------------------|----------------|
E|-------------------------|----------------|

Tussenspelakkoorden:
Ebm G# C#
Ebm C# Bb
Ebm B C#
B C# Ebm

      Ebm
en we varen naar Timboektoe toe
Timboektoe toe Timboektoe toe
en we varen naar Timboektoe toe
      B        Bb        Ebm
en we zijn nog lang niet moe


      Fm
en we varen naar Timboektoe toe
Timboektoe toe Timboektoe toe
en we varen naar Timboektoe toe
      C#        C        Fm
en we zijn nog lang niet moe

Tussenspelmelodie:
e|------------------|---------------|
B|------------------|---------------|
G|-5--7-7-5-7-8--8--|-7-7-5---5--5--|
D|------------------|-------8-------|
A|------------------|---------------|
E|------------------|---------------|

e|------------------|---------------|
B|------------------|---------------|
G|-7-7-5--7-8-8-7-5-|-7-7--5-5------|
D|------------------|-----------8---|
A|------------------|---------------|
E|------------------|---------------|

Tussenspelakkoorden:
Bb Eb 
Bb F
Bb Eb 
Bb F Bb

   Bb            F
de hond van de matrozen
     Bb          F
gaat mee op elke reis
         Bb   Bb/Ab  Eb
naar de hitte van de tropen
      F             Bb
en de zeeën vol met ijs
    Bb                F
het hondje wordt niet zeeziek
    Bb                F
hij houdt zich stevig vast
       Bb        Bb/Ab Eb
en hij heeft een eigen mandje
        F           Bb
dat zit boven op de mast


           Eb     Bb      Cm
wij zijn piraten van de zee
          Fm        Cm         Bb
en al wie zin heeft vaart maar mee
           Eb        Ab        Fm         Bb
wij zijn piraten, piraten, piraten van de zee

           Eb     Bb     Cm
wij zijn piraten van de zee
          Fm        Cm         Bb
en al wie zin heeft vaart maar mee
           Eb        Ab       Bb         Eb
wij zijn piraten, piraten, piraten van de zee


       Eb
Onze stuurman die heet Sjaak
      Cm    Ab       Bb
Soep, soep, soep met sliertjes
    Eb
Hij moet eten met een haak
Cm        Ab       Bb    Eb
Soep, soep,soep met sliertjes
   Eb
Daarom eten wij niet vaak
      Cm    Ab       Bb
Soep, soep, soep met sliertjes
 Eb
Soep, soep, soep met smaak
Cm      Ab       Bb        Eb
Want de stuurman heeft een haak

Eb
Oh zeg Gert, als wij zo heel heel lang op zee zijn he,
dan zie ik Bobbientje bijna nooit meer,
en jij Marlène toch ook niet he, Gertje

       Eb      Bb      Ab
Als de sterren naar me roepen
       Eb      Fm      Bb
als de zeewind naar me fluit
    Eb      Bb       Cm
dan moet ik naar het water
    F            Bb
dan trek ik erop uit

     C#         D#      G#
maar wanneer de meeuwen schreeuwen
      G#       F     C
boven storm en golfgebruis

   Fm      Gm      Ab
verlang ik naar Marlène
   Bb
en wil ik weer naar...


    Eb
Een echte piraat heeft
                   Bb
een gaatje in zijn oor
een gaatje in zijn oor
met een ringetje d'r door
    Eb
een echte piraat heeft
                    Bb             
een boortje op zijn borst
een boortje op zijn borst
en een vreselijke dorst
    Eb Bb   Cm         G#   F  Bb
een echte piraat die herken je meteen
         G#     F       Bb              G#  F  Bb
aan zijn gaatje en zijn boortje en zijn houten been


           Eb     Bb      Cm
wij zijn piraten van de zee
          Fm        Cm         Bb
en al wie zin heeft vaart maar mee
           Eb        Ab        Fm         Bb
wij zijn piraten, piraten, piraten van de zee

           Eb     Bb     Cm
wij zijn piraten van de zee
          Fm        Cm         Bb
en al wie zin heeft vaart maar mee
           Eb        Ab       Bb         Eb
wij zijn piraten, piraten, piraten van de zee



           Eb        Ab       Bb         Eb
Wij zijn piraten, piraten, piraten van de zee
Добавлено: 11.12.2015
Другие материалы по этой песне:
  • Аккорды и текст

Страница создана 11.12.2015
http://primanota.ru/samson-en-gert/piraten-potpourri-chords.htm
Привет, Гость.
Предлагаем пройти революционный курс по гитаре.
Подарок от PrimaNota.Ru, забирай!