PrimaNota.ru - самый крупный в мире бесплатный архив песенных текстов, аккордов, табулатур и нот


Samson En Gert - In De Disco - аккорды и текст, видео

Регистрация Запомнить меня
Войти через:  Facebook Google Twitter Vk Yandex Mail.ru

Samson En Gert - In De Disco - аккорды и текст, видео

Печатать
Просмотров: 58
In De Disco
Samson En Gert
      F     Bb    Gm    Dm    Eb    C     F*        
e ¦---1-----6-----3-----5-----6-----3-----8---|
B ¦---1-----6-----3-----6-----8-----3-----10--|
G ¦---2-----7-----3-----7-----8-----5-----10--|
D ¦---3-----8-----5-----7-----8-----5-----10--|
A ¦---3-----8-----5-----5-----6-----3-----8---|
E ¦---1-----6-----3-----x-----x-----x-----x---|


Intromelodie:
e|------------------------------|------------------------------|
B|-----------------------8------|-----------------------8------|
G|------------------7-10---7-10-|------------------7-10---7-10-|
D|---------8-10--10-------------|---------8-10--10-------------|
A|-8-8--10----------------------|-8-8--10----------------------|
E|------------------------------|------------------------------|

e|---------------------10-13-15---10-13-|---------------------131313131313131313|
B|-----------11-13--13------------------|-----------11-13--13-------------------|
G|-10-10--12----------------------------|-10-10--12-----------------------------|
D|--------------------------------------|---------------------------------------|
A|--------------------------------------|---------------------------------------|
E|--------------------------------------|---------------------------------------|

Introakkoorden:
F (blijven herhalen) 
eind van de intro: F* F* Eb Eb Dm Dm C C Bb (komt ook in het refrein voor)

Refrein: 
      Bb          F
in de disco - Wooohoooh
        Gm           Dm
gaan we dansen - wooohoooh
        Eb
gaan we zingen
gaan we swingen
        Bb 
gaan we op de tafel springen
      C           F* F* Eb Eb Dm Dm C C Bb
in de disco - Wooohoooh
      Bb          F
in de disco - Wooohoooh
        Gm           Dm
gaan we dansen - wooohoooh
        Eb
gaan we zingen
gaan we swingen
        Bb 
gaan we op de tafel springen
      C           Bb
in de disco - Wooohoooh

Tussenspel (baslijn)
e|----------------------|
B|----------------------|
G|----------------------|
D|----------33-11-00----|
A|-------------------33-|
E|-1-1--1-1-------------|

Bb
Het was Gertje zijn verjaardag 
       F
dus we hielden een groot feest
        Gm
Met limonade en spaghetti 
           Dm
't was nog nooit zo leuk geweest
        Eb
Maar zo rond een uur of negen 
      Bb
na de koffie en de cake
       C
Zei ik plots tegen de gasten: 
        F* F* Eb Eb Dm Dm C C Bb
we gaan naar de discotheek

refrein

          Bb
Meneer Spaghetti doet een buikdans
         F
kijk hij heeft het naar zijn zin
     Gm
En Octaaf staat wild te shaken 
      Dm
op de dansvloer met Jeannine
       Eb
Hey, meneer de burgemeester
         Bb 
dans met mij de brokkenbrol
         C
Zeg, die dans die ken ik niet 
         F* F* Eb Eb Dm Dm C C Bb
ik ken alleen de rock'n roll

refrein

           Bb
'k zou nog uren kunnen dansen 
       F
kom we gaan er tegenaan
         Gm
't is al heel vroeg in de morgen 
       Dm
dus we kunnen beter gaan
        Eb
Nog één dansje wil ik dansen 
          Bb
een traag liedje alsjeblief
         C
goed dan dans ik met Marlene 
        F* F* Eb Eb Dm Dm C C Bb
want ik vind haar toch zo lief

refrein (alleen de 2e helft!!!)

Brugmelodie (vanaf 3e keer in de disco):
e|------------------------------|------------------------------|
B|-----------------------8------|-----------------------8------|
G|------------------7-10---7-10-|------------------7-10---7-10-|
D|---------8-10--10-------------|---------8-10--10-------------|
A|-8-8--10----------------------|-8-8--10----------------------|
E|------------------------------|------------------------------|

e|---------------------11-14-16---11-14-|---------------------141414141414141414|
B|-----------12-14--14------------------|-----------12-14--14-------------------|
G|-11-11--13----------------------------|-11-11--13-----------------------------|
D|--------------------------------------|---------------------------------------|
A|--------------------------------------|---------------------------------------|
E|--------------------------------------|---------------------------------------|

Brugakkoorden:
N.c.
in...de...disco......
in...de...disco......
F
in...de...disco......
F
in...de...disco......
F#
in...de...disco......
F#
in...de...disco......

      B           F#
in de disco - Wooohoooh
        G#           D#m
gaan we dansen - wooohoooh
        F
gaan we zingen
gaan we swingen
        B 
gaan we op de tafel springen
      C#          F#* F#* F F D#m D#m C# C# B
in de disco - Wooohoooh
      B           F#
in de disco - Wooohoooh
        G#m          D#m
gaan we dansen - wooohoooh
        F
gaan we zingen
gaan we swingen
        B 
gaan we op de tafel springen
      C#          B
in de disco - Wooohoooh
      B           F#
in de disco - Wooohoooh
        G#m          D#m
gaan we dansen - wooohoooh
        F
gaan we zingen
gaan we swingen
        B 
gaan we op de tafel springen
      C#          B    B
in de disco - Wooohoooh
Добавлено: 12.12.2015
Другие материалы по этой песне:
  • Аккорды и текст

Страница создана 12.12.2015
http://primanota.ru/samson-en-gert/in-de-disco-chords.htm
Привет, Гость.
Предлагаем пройти революционный курс по гитаре.
Подарок от PrimaNota.Ru, забирай!