PrimaNota.ru - самый крупный в мире бесплатный архив песенных текстов, аккордов, табулатур и нот


Samson En Gert - Aap In Huis - аккорды и текст, видео

Регистрация Запомнить меня
Войти через:  Facebook Google Twitter Vk Yandex Mail.ru

Samson En Gert - Aap In Huis - аккорды и текст, видео

Печатать
Просмотров: 98
Aap In Huis
Samson En Gert
Het is in het genre rock en bij dit nummer heb je eigenlijk genoeg aan alleen de powerchords.

      G     F     C     D     Eb    F *   Bb        
e ¦---3-----1-----0-----2-----6-----8-----1---|
B ¦---3-----1-----1-----3-----8-----10----3---|
G ¦---0-----2-----0-----2-----8-----10----3---|
D ¦---0-----3-----2-----0-----8-----10----3---|
A ¦---2-----3-----3-----x-----6-----8-----1---|
E ¦---3-----1-----x-----x-----x-----x-----x---|


Riff 1                  Riff 2
e------------------|    e------------------|
B------------------|    B|-13-14-15--------|
G|-----3--------3--|    G|-----------------|
D|--3/5--5-33-55-5-|    D|-----------------|
A|-----------------|    A|-----------------|
E|-----------------|    E|-----------------|


Intro
De hele tijd G met vlak voor het refrein riff 1.

Refrein
G
Er zit een aap in ons huis
           F   C      G
Er zit een aap in ons huis
    C       
Hij hangt in de gordijnen
   D
En eet hier alles op
    C
Hij doet alles verdwijnen
       D
En zet alles op zijn kop
           Eb   F *              G
Er zit een aaaaaaaap in ons huis
           Eb   F *              G
Er zit een aaaaaaaap in ons huis


G
Vanmorgen werd ik wakker
         Bb
Door een vreselijk kabaal
   F
Ik keek toen door het raam
          D
En wat ik zag was niet normaal
   G
Ik kneep in mijn pootje
        Bb
Want ik dacht dit is een droom
      F
In 't midden van de tuin
        D
Zat een aapje in een boom

Refrein

G
Voor ik het besefte
        Bb
Zat dat aapje in ons huis
    F
Hij liep over de tafel
         D
En kroop dan in het fornuis
     G
Toen sprong hij in mijn mandje
       Bb
En zat boven op mijn kop
     F
Toen kroop hij in de koelkast
      D
En at al ons eten op

Refrein

   G
Ik belde naar het circus
          Bb
Maar daar was hij niet gevlucht
     F
Ondertussen vloog het aapje
         D
Met mijn mandje door de lucht
   G
Ik kon hem bijna pakken
          Bb
Maar toen ging hij er vandoor
     F
Maar voor hij wegging
                  D
Kneep hij in mijn neus en in mijn oor

Refrein 2x

Solo (zelfde als couplet)

e|------------------------|---10-13-13-13-13-12-11-10-|-------------------|---------------------|
B|-8/9-10-12-12-12-10-9-8-|-12------------------------|-10b-10b-10b-------|---------------------|
G|------------------------|---------------------------|-------------12-10-|-77-9-10-11-12-13-14-|
D|------------------------|---------------------------|-------------------|---------------------|
A|------------------------|---------------------------|-------------------|---------------------|
E|------------------------|---------------------------|-------------------|---------------------|

e|---------------------------------------|-11/13-13-13-13-12-11-10-|----------------------------|
B|-10/12-11/12-11/12-11/12-11/12-11-10-8-|-------------------------|-------10-------10-13-15-13-|
G|---------------------------------------|-------------------------|-10-12----12-10-------------|
D|---------------------------------------|-------------------------|----------------------------|
A|---------------------------------------|-------------------------|----------------------------|
E|---------------------------------------|-------------------------|----------------------------|

e|---------------------------------------|
B|15151515151515151515151515151515-------|
G|14141414141414141414141414141414-------|
D|---------------------------------------|
A|---------------------------------------|
E|---------------------------------------|

Refrein
Добавлено: 11.12.2015
Другие материалы по этой песне:
  • Аккорды и текст

Страница создана 11.12.2015
http://primanota.ru/samson-en-gert/aap-in-huis-chords.htm
Привет, Гость.
Предлагаем пройти революционный курс по гитаре.
Подарок от PrimaNota.Ru, забирай!