PrimaNota.ru - самый крупный в мире бесплатный архив песенных текстов, аккордов, табулатур и нот


Samples - When The Day Is Done - текст песни, таба, видео

Регистрация Запомнить меня
Войти через:  Facebook Google Twitter Vk Yandex Mail.ru

Samples - When The Day Is Done - текст песни, таба, видео

Печатать
Просмотров: 97
SONG TUNING: Tune your guitar half-step up, or adjust the song pitch one semitone 
higher.

Thanks to Bley, for sharing this amazing song.

-------------------------------------------------------------------------------
                     When the Day is Done by The Sample 
-------------------------------------------------------------------------------
Tabbed by: Macejko

Tuning: Half-step up

Intro:

    ↓                  ↑  ↑ ↓  ↓ ↑ ↓ ↑  ↑ ↓  ↓ ↑ ↓ - repeat this 2x
e|--1------------------0--0-0--0-0-0-0--0-0--0-0-0---------------------------|
B|--1------------------1--1-1--1-1-1-1--1-1--1-1-1---------------------------|
G|--0------------------0--0-0--0-0-0-0--0-0--0-0-0---------------------------|
D|--2------------------2--2-2--2-2-2-2--2-2--2-2-2---------------------------|
A|--3------------------3--3-3--3-3-3-3--3-3--3-3-3---------------------------|
E|---------------------------------------------------------------------------|

Main riff (repeat this through the whole song): 

   ↓  ↓ ↑ ↓  ↓ ↑ ↓  ↓    - repeat this 3x then end with this:       ↓  ↓
e|------0------0-1----1-------------------------------3----3--------3----3--------|
B|----1-1----1-1-1--1----1---1------------------------3--3----3---3-3--3----3---3-|
G|----0-0----0-0-2--2------2--------------------------0--0------0---0--0------0---|
D|-2--2-1-2--2-2-3--3---------------------------------0--0----------0--0----------|
A|-3------2------3--3---------------------------------2--2----------2--2----------|
E|---------------1------------------------------------3-------------3-------------|

In the middle part (♫ Oh no, something's wrong... ♫) just play this ↓ and then go  back to main riff.

                                                                 e|-3-|
                                                                 B|-1-|
                                                                 G|-0-|
                                                                 D|-2-|
                                                                 A|-3-|
                                                                 E|-x-|


************************************

| ↓   downstroke
| ↑   upstroke
| x   Mute note


************************************
Добавлено: 12.07.2015
Другие материалы по этой песне:
  • Аккорды и текст

Страница создана 27.04.2012
http://primanota.ru/samples/when-the-day-is-done-chords.htm
Привет, Гость.
Предлагаем пройти революционный курс по гитаре.
Подарок от PrimaNota.Ru, забирай!