PrimaNota.ru - самый крупный в мире бесплатный архив песенных текстов, аккордов, табулатур и нот


Sammy Hagar - Livin' On A Coastline - аккорды и текст, видео

Регистрация Запомнить меня
Войти через:  Facebook Google Twitter Vk Yandex Mail.ru

Sammy Hagar - Livin' On A Coastline - аккорды и текст, видео

Печатать
Просмотров: 57
Livin' On A Coastline
Sammy Hagar
Intro and main riff (listen to the CD for the stuming pattern)


e|-----0-x-x-----------0-0-------------------------0-0-----------------------------|
B|--0--0-x-x-----------0-0------------2------------0-0-----------------------------|
G|1-1--1-x-x----1-1-1--1-1----1-1-1-1-2-1----1-1-1-1-1-----------------------------|
D|2-2--2-x-x--2-2-2-2--2-2--2-2-2-2-2-2-2----2-2-2-2-2-----------------------------|
A|2-2--2-x-x--2-2-2-2--2-2--2-2-2-2-2---2--2-2-2-2---------------------------------|
E|0-0--0-x-x--0-0-0-0-------0-0-0-0-0---0--0-0-0-0---------------------------------|



       E                                                A     E
 Well, I'm riding down the beach on my ATV (livin' on a coast line)

          E                                                   A     E                   
 I'm just chasin' the sun she's going down on me (livin' on a coast line)

           A 
 We got a little bit of sun, a little bit of beach, a whole lotta fun

                   E        B                                                     G#m          A   
 in everybodies reach. Just step right up, we got another fine day, don't let the big one get away.  
        
                            E   A           B     E
 We're livin' on a coast line. (livin' on a coast line)

 E                   F#m                              A           B     
 Livin' it up (Yeah) Livin' it up (yes we are) We're livin' it up Lovin' it up

 A           B      E          
 livin' on a coast line.


          E                                                  A      E                                         
 We got a styrofoam chest full of ice cold beer (livin' on a coast line)

          E                                                    A      E 
 We ain't going nowhere, we got it all right here (livin' on a coast line)

            A
 Yes, gonna gaurantee to cure the summer time blues, put your feet in the sand

                        E            B  
 and throw away your shoes. You just step right up, we got another fine day

                    
 got a nice cool breeze blow your cares away. Don't take much to have a lot to say

                G#m        A                               E    A           B     E
 don't let the big one get away. We're livin' on a coast line. (livin' on a coast line)

 E                F#m                      A            B    
 Livin' it up     Livin' it up      We're livin' it up Lovin' it up

 A           B      E  
 livin' on a coast line.

       B7
We got north beach, south beach, trying to find the perfect beach,

   A 
So come on down, come on down

C#m
East west, southwest nothin' but the very best, 

B
so come on down, come on down before the big one get away.



e|--12b13b12-----------------------------------------------------------------|
B|----------12-12b13b12----------------------------------------10-10---------|
G|----------------------13-11-9-9-11b12b11-----9-11-9-----9-11-------11------|
D|-----------------------------------------9h11-------11---------------------|
A|---------------------------------------------------------------------------|
E|---------------------------------------------------------------------------|


e|----------------------------s14--12----------------------------------------|
B|---12-10----10--------12-12------------------------------------------------|
G|---------13----13-11-------------------------------------------------------|
D|---------------------------------------------------------------------------|
A|---------------------------------------------------------------------------|
E|---------------------------------------------------------------------------|



Ice cold brew just waiting for you
Добавлено: 30.12.2015
Другие материалы по этой песне:
  • Аккорды и текст

Страница создана 25.10.2014
http://primanota.ru/sammy-hagar/livin-on-a-coastline-chords.htm
Привет, Гость.
Предлагаем пройти революционный курс по гитаре.
Подарок от PrimaNota.Ru, забирай!