PrimaNota.ru - самый крупный в мире бесплатный архив песенных текстов, аккордов, табулатур и нот


Samiam - Super Brava - текст песни, таба, видео

Регистрация Запомнить меня
Войти через:  Facebook Google Twitter Vk Yandex Mail.ru

Samiam - Super Brava - текст песни, таба, видео

Печатать
Просмотров: 85
Авторы: Jason Beebout, Sean Kennerly

Song: Super Brava
Artist: Samiam
Album: Astray (2006)
Tuning: Standard E A D G B e


Intro Lead Gtr
e|---------------------------|--------------------------------|--------------------------|
B|---------------------------|-4-b5-r4------------------------|--------------------5-----|
G|-6----6-----4--6-----5-----|---------6--4---------4--6----4-|-6----6----4---6----------|
D|---------------------------|----------------6--7------------|--------------------------|
A|---------------------------|--------------------------------|--------------------------|
E|---------------------------|--------------------------------|--------------------------|

e|------------------------------|-/7--7--5-7--5--4-----------|--------------------|--------------------|---|
B|-7----7----5--7--9----7--5----|-------------------7--5---5-|-7---7---7-9---5----|-4---5---7---9---5--|---|
G|------------------------------|----------------------------|--------------------|--------------------|---|
D|------------------------------|----------------------------|--------------------|--------------------|---|
A|------------------------------|----------------------------|--------------------|--------------------|---|
E|------------------------------|----------------------------|--------------------|--------------------|---|

Intro Rhythm Gtr

e|-----|-----|-----|-----|-----|-----|-----|-----|
B|-----|-----|-----|-----|-----|-----|-----|-----|
G|-----|-----|-----|-----|-----|-----|-----|-----|
D|-6---|-9---|-4---|-2---|-6---|-9---|-4---|-2---|
A|-4---|-7---|-2---|-0---|-4---|-7---|-2---|-0---|
E|-----|-----|-----|-----|-----|-----|-----|-----|


Verse (at 0:22)

e|-----------------|-----------------|-----------------|-----------------|
B|-----------------|-----------------|-----------------|-----------------|
G|-----------------|-----------------|-----------------|-----------------|
D|-9-9-9-9-9-9-9-4-|-4-4-4-4-4-4-4-0-|-2-2-2-2-2-2-2-2-|-2-2-2-2-2-2-2-9-|
A|-7-7-7-7-7-7-7-2-|-2-2-2-2-2-2-2-0-|-0-0-0-0-0-0-0-0-|-0-0-0-0-0-0-0-7-|
E|-----------------|-----------------|-----------------|-----------------| x2

e|-----------------|-----------------|-----------------|-----------------|
B|-----------------|-----------------|-----------------|-----------------|
G|-----------------|-----------------|-----------------|-----------------|
D|-9-9-9-9-9-9-9-4-|-4-4-4-4-4-4-4-2-|-2-2-2-2-2-2-2---|---------------9-|
A|-7-7-7-7-7-7-7-2-|-2-2-2-2-2-2-2-0-|-0-0-0-0-0-0-0-4-|-4-4-4-7-7-7-7-7-|
E|-----------------|-----------------|---------------2-|-2-2-2-5-5-5-5---|

e|-----------------|-----------------|-----------------|-----------------|
B|-----------------|-----------------|-----------------|-----------------|
G|-----------------|-----------------|-----------------|-----------------|
D|-9-9-9-9-9-9-9-4-|-4-4-4-4-4-4-4-0-|-2-2-2-2-2-2-2-2-|-2---------------|
A|-7-7-7-7-7-7-7-2-|-2-2-2-2-2-2-2-0-|-0-0-0-0-0-0-0-0-|-0-------------4-|
E|-----------------|-----------------|-----------------|---------------2-|


Pre-Chorus (at 0:43)

e|------------------------------|-----------------|
B|------------------------------|-----------------|
G|------------------------------|-----------------|
D|------------------------------|---------9-------|
A|-4---4---2-4-2-4---4----0-2-0-|-9---7---7---7---|
E|-2---2---0-2-0-2---2----0-2-0-|-7---5-------5---| x4


Repeat Verse and Pre-Chorus again

Chorus (at 1:48)

e|---------------|---------------|---------------|---------------|
B|---------------|---------------|---------------|---------------|
G|---------------|---------------|---------------|---------------|
D|-6--6--6-6-6-9-|-9--9--9-9-9-4-|-4--4--4-4-4-2-|-2--2--2-2-2-6-|
A|-4--4--4-4-4-7-|-7--7--7-7-7-2-|-2--2--2-2-2-0-|-0--0--0-0-0-4-|
E|---------------|---------------|---------------|---------------| x3

e|---------------|---------------|---------------|---------------|
B|---------------|---------------|---------------|---------------|
G|---------------|---------------|---------------|---------------|
D|-6--6--6-6-6-9-|-9--9--9-9-9-4-|-2-------------|---------------|
A|-4--4--4-4-4-7-|-7--7--7-7-7-2-|-0-------------|---------------|
E|---------------|---------------|---------------|---------------| x1


Repeat Verse and Pre-Chorus

Repeat Chorus until the end


The lead guitar plays a couple of not very distinct notes during the song which can be made out
if you listen close. However, I considered them negligible for the overall tone of the song 
and did not tab them.
Добавлено: 27.06.2016
Вам также может быть интересно:
Другие материалы по этой песне:
  • Аккорды и текст

Страница создана 21.04.2012
http://primanota.ru/samiam/super-brava-chords.htm
Привет, Гость.
Предлагаем пройти революционный курс по гитаре.
Подарок от PrimaNota.Ru, забирай!