PrimaNota.ru - самый крупный в мире бесплатный архив песенных текстов, аккордов, табулатур и нот


Samiam - Sunshine - текст песни, таба, бас-таба, видео

Регистрация Запомнить меня
Войти через:  Facebook Google Twitter Vk Yandex Mail.ru

Samiam - Sunshine - текст песни, таба, бас-таба, видео

Печатать
Просмотров: 137
 intro
e|---------------------------------------------------------------------------|
B|---------------------------------------------------------------------------|
G|--9-9-9--------------------------------------------------------------------|
D|--9-9-9--7-7-7----111111---4-4-4----7-7-7----7-7-7-------------------------|
A|--7-7-7--7-7-7----111111---4-4-4----7-7-7----7-7-7-------------------------|
E|---------5-5-5----9-9-9----2-2-2----5-5-5----5-5-5-------------------------|

                                verse
e|---------------------------------------------------------------------------|
B|---------------------------------------------------------------------------|
G|--9-9-9----------6-6-6-----------------------9-9-9-----------9-9-9---------|
D|--9-9-9---7-7-7--6-6-6-----4-4-4-----7-7-7---9-9-9---7-7-7---9-9-9---9-9-9-|
A|--7-7-7---7-7-7--4-4-4-----4-4-4-----7-7-7---7-7-7---7-7-7---7-7-7---9-9-9-|
E|----------5-5-5------------2-2-2-----5-5-5-----------5-5-5-----------7-7-7-|

                               chorus
e|---------------------------------------------------------------------------|
B|---------------------------------------------------------------------------|
G|--9-9-9----------6-6-6-----4-4-4-------------------------------------------|
D|--9-9-9--7-7-7---6-6-6-----4-4-4----7-7-7---9-9-9---9-9-9------------------|
A|--7-7-7--7-7-7---4-4-4-----2-2-2----7-7-7---9-9-9---9-9-9------------------|
E|---------5-5-5----------------------5-5-5---7-7-7---7-7-7------------------|

Bridge missing.
Добавлено: 02.06.2012
Другие материалы по этой песне:

Страница создана 07.03.2012
http://primanota.ru/samiam/sunshine-chords.htm
Привет, Гость.
Предлагаем пройти революционный курс по гитаре.
Подарок от PrimaNota.Ru, забирай!