PrimaNota.ru - самый крупный в мире бесплатный архив песенных текстов, аккордов, табулатур и нот


Samiam - Storm Clouds - таба, видео

Регистрация Запомнить меня
Войти через:  Facebook Google Twitter Vk Yandex Mail.ru

Samiam - Storm Clouds - таба, видео

Печатать
Просмотров: 107
Artist: Samiam
Song: Stormclouds
Tuning: Standard

Intro
|----14-12-14-| x8
|-15----------|
|-------------|
|-------------|
|-------------|
|-------------|

Verse
|---------------------------------|---------------------------------|
|---------------------------------|---------------------------------|
|-4-4-4-4-4-4-4-4-4-4-4-4-4-4-4-0-|-0-0-0-0-0-0-0-0-0-0-0-0-0-0-0-7-|
|---------------------------------|---------------------------------|
|---------------------------------|---------------------------------|
|---------------------------------|---------------------------------|
|                                                                   | x2
|---------------------------------|---------------------------------|
|---------------------------------|---------------------------------|
|-7-7-7-7-7-7-7-7-7-7-7-7-7-7-7-2-|-2-2-2-2-2-2-2-0-0-0-0-0-0-0-0-0-|
|---------------------------------|---------------------------------|
|---------------------------------|---------------------------------|
|---------------------------------|---------------------------------|

Chorus
|-----------------------------------------------------------------|
|-----------------------------------------------------------------|
|-7-7-7-7-7-7-7-7-7-7-7-7-7-7-7-7---------------------------------|
|-7-7-7-7-7-7-7-7-7-7-7-7-7-7-7-7-7-7-7-7-7-7-7-7-7-7-7-7-7-7-7-7-|
|-5-5-5-5-5-5-5-5-5-5-5-5-5-5-5-5-7-7-7-7-7-7-7-7-7-7-7-7-7-7-7-7-|
|---------------------------------5-5-5-5-5-5-5-5-5-5-5-5-5-5-5-5-|
|                                                                 | x2
|-----------------------------------------------------------------|
|-----------------------------------------------------------------|
|-----------------------------------------------------------------|
|-2-2-2-2-2-2-2-2-2-2-2-2-2-2-2-2-5-5-5-5-5-5-5-5-5-5-5-5-5-5-5-5-|
|-2-2-2-2-2-2-2-2-2-2-2-2-2-2-2-2-5-5-5-5-5-5-5-5-5-5-5-5-5-5-5-5-|
|-0-0-0-0-0-0-0-0-0-0-0-0-0-0-0-0-3-3-3-3-3-3-3-3-3-3-3-3-3-3-3-3-|

Intro x8

Verse x2

Chorus x2

Intro x8

Solo
|-14-14-14-14-14-14-14-14-14-14-14-14-14-14-14-10-|-10-10-10-10-10-10-10-10-|
|-------------------------------------------------|-------------------------|
|-------------------------------------------------|-------------------------|
|-------------------------------------------------|-------------------------|
|-------------------------------------------------|-------------------------|
|-------------------------------------------------|-------------------------|

-10-10-10-10-10-10-10-12-|-12-12-12-12-12-12-12-12-12-12-12-12-12-12-12-7-|
-------------------------|------------------------------------------------|
-------------------------|------------------------------------------------|
-------------------------|------------------------------------------------|
-------------------------|------------------------------------------------|
-------------------------|------------------------------------------------|

-7-7-7-7-7-7-7-7-7-7-7-7-7-7-7-5-|-5-5-5-5-5-5-5-5-5-5-5-5-5-5-5-14-|-14-14-|
---------------------------------|----------------------------------|-------|
---------------------------------|----------------------------------|-------|
---------------------------------|----------------------------------|-------|
---------------------------------|----------------------------------|-------|
---------------------------------|----------------------------------|-------|

-14-14-14-14-14-14-14-14-14-14-14-14-14-10-|-10-10-10-10-10-10-10-10-10-10-10-|
-------------------------------------------|----------------------------------|
-------------------------------------------|----------------------------------|
-------------------------------------------|----------------------------------|
-------------------------------------------|----------------------------------|
-------------------------------------------|----------------------------------|

-10-10-10-10-12-|-12-12-12-12-12-12-12-12-12-12-12-12-12-12-12-12-|
----------------|-------------------------------------------------|
----------------|-------------------------------------------------|
----------------|-------------------------------------------------|
----------------|-------------------------------------------------|
----------------|-------------------------------------------------|

Intro x8

Chorus x2

Intro x14

End On
|----|
|-15-|
|----|
|----|
|----|
|----|

END
Добавлено: 09.03.2012
Другие материалы по этой песне:
  • Аккорды и текст

Страница создана 09.03.2012
http://primanota.ru/samiam/storm-clouds-chords.htm
Привет, Гость.
Предлагаем пройти революционный курс по гитаре.
Подарок от PrimaNota.Ru, забирай!