PrimaNota.ru - самый крупный в мире бесплатный архив песенных текстов, аккордов, табулатур и нот


Sambora, Richie - Rest in Peace - текст песни, таба, видео

Регистрация Запомнить меня
Войти через:  Facebook Google Twitter Vk Yandex Mail.ru

Sambora, Richie - Rest in Peace - текст песни, таба, видео

Печатать
Просмотров: 164
Artist - Richie Sambora
Song - Rest In Peace
Album - Stranger In This Town
Notation - see below
Time - slowly


Intro


   AH   
e------¦
B------¦
G--<0~-¦ hold for six bars
D------¦
A------¦
E------¦

   AH   
e----------------------------------------------------¦
B-----------------------<11br~/----------------->8--¦
G--0~~~~----14/~---5-------------<2-----------9-----¦
D-------------------5-------------<3--------x0-------¦
A-------------------3-------------<3-----x0----------¦
E----------------------------------------------------¦

                                     AH
e--12br-------------------------------------------1-~¦
B-------13---------------------------------------1---¦
G----------12s10p9-----------------------------2-----¦
D------------------10------------------------3-------¦
A---------------------10s8p7---------------3---------¦
E----------------------------8/-6~--6--/-----------¦


e-------------------------------------1~-------12br-8¦
B-----------------------------------1----------------¦
G--<5~----------------------<3----2------------------¦
D--<5~----------------------<3--3--------------------¦
A--<3~--3-5br-3~------------<1-----------------------¦
E-------------------------------------------<0~------¦


e---8~-----------------------------------------------¦
B--8-------------------------------------------------¦
G------------7-----<2->-----<3----5-7br-7br-5~-------¦
D-----------8------<3->-----<3---5-------------------¦
A----------8-------<3->-----<1-----------------------¦
E---------6--------<1->------------------------------¦


e----------------------------------------------------¦
B--6--------1----------5-6-5-------5-6-8b-8br--------¦
G----7---8---2-----<5--------5-----------------5-7b~-¦
D------8-----------<5----------5~--------------------¦
A---------------3--<3--------------------------------¦
E----------------------------------------------------¦


e--------------------------------8---8---------------¦
B------------------------------8---8-----------------¦
G--5-7br-5-7br-5~---------7b~-----------10br-8-------¦
D------------------7br-5-----------------------10----¦
A----------------------------------------------------¦
E----------------------------------------------------¦


e---------------------------12-13-15-15b-15-18bgr~---¦
B--10--------------------x0--------------------------¦
G--10p8---------------x0-----------------------------¦
D-------10-8-----------------------------------------¦
A-------------10-8-7---------------------------------¦
E----------------------------------------------------¦

                                AH
e--17-13-13------------------------------------------¦
B-----------13~---5-7br-5----------------------------¦
G-----------------5-7br-5-7br-5~7br-5s3/---5~-------¦
D-----------------------------------------5----------¦
A----------------------------------------------------¦
E----------------------------------------------------¦

                    AH                 AH
e----------------------------------------------------¦
B----------------------------------------------------¦
G--3-----------------------------------<5-----------¦
D----5-3---------------------------------------------¦
A--------5br-p3~----3-/-----------------------------¦
E----------------------------------------------------¦


e----------------------------------------------------¦
B----------------------------<5----------------------¦
G----------------------<2----<5----------------------¦
D----------------5s7---<3----<5----------------------¦
A------3-5bgr-3~-------<3----<3----------------------¦
E--3-5-----------------------------------------------¦


e-----12-12------------------------------------------¦
B--13-------13-----------------------------------5---¦
G---------------12-14br-12-----------------------5---¦
D--------------------------15-14-----------------5---¦
A--------------------------------15-15s13~-/----3---¦
E----------------------------------------------------¦

AH  - above note indicates artificial harmonic
b   - bend
br  - bend and release
bgr - bend and gradual release
s   - slide to next note
p   - pull off to next note
x   - mute note
   - press whammy bar
/   - release whammy bar
/  - dive bomb
<   - volume swell
>   - volume fade
~   - vibrato

Visit www.directTABS.com for more free tablature!
Добавлено: 30.09.2013
Другие материалы по этой песне:
  • Аккорды и текст

Страница создана 25.04.2012
http://primanota.ru/sambora-richie/rest-in-peace-chords.htm
Привет, Гость.
Предлагаем пройти революционный курс по гитаре.
Подарок от PrimaNota.Ru, забирай!