PrimaNota.ru - самый крупный в мире бесплатный архив песенных текстов, аккордов, табулатур и нот


Sambora, Richie - One Light Burning - текст песни, таба, видео

Регистрация Запомнить меня
Войти через:  Facebook Google Twitter Vk Yandex Mail.ru

Sambora, Richie - One Light Burning - текст песни, таба, видео

Печатать
Просмотров: 135
e---------------------------------------17-15-15-------|
B--2---2-----8-10p8-10br~---10br-8-10b-----------17-17-|
G------------------------------------------------------|
D------------------------------------------------------|
A------------------------------------------------------|
E------------------------------------------------------|

e------------------------------------------------------|
B--15-15-12s15-----------------------------------------|
G------------------------------------------------------|
D----------------12h14p12~-----------------------------|
A------------------------------------------------------|
E------------------------------------------------------|

Verse

e--------------------------|
B--------------------------|
G-----12-14-14br14bh-12~---|
D--14----------------------|
A--------------------------|
E--------------------------|

Acoustic (top) joins in with electric (bottom)

    ^    ^        ^     ^
 e--0-------------0-----0------------0----------------|
 B--1----0--------1-----1--------3-------3------------|
 G--2----0--------2-----0-0----2---2---2---2--------0-|
 D--2----2--------2-----2----0--------------------0---|
 A--0----2--------0---2-3-----------------------2-----|
 E-------0------------------------------------3-------|

 E------------15--17~--15~----------------------------|
 B------15s17---17------------------------------------|
 G----------------------------------------------------|
 D----------------------------------------------------|
 A----------------------------------------------------|
 E----------------------------------------------------|

                CHORUS ^  ^  ^
 E--------------
Добавлено: 01.01.2014
Другие материалы по этой песне:
  • Аккорды и текст

Страница создана 11.06.2012
http://primanota.ru/sambora-richie/one-light-burning-chords.htm
Привет, Гость.
Предлагаем пройти революционный курс по гитаре.
Подарок от PrimaNota.Ru, забирай!