PrimaNota.ru - самый крупный в мире бесплатный архив песенных текстов, аккордов, табулатур и нот


Samantha Crain - Churchill - таба, видео

Регистрация Запомнить меня
Войти через:  Facebook Google Twitter Vk Yandex Mail.ru

Samantha Crain - Churchill - таба, видео

Печатать
Просмотров: 92
Авторы музыки: Samantha Crain

Capo 2 for album version capo 4 for live version
Tuning standard

Intro.  Strum this x2

e|--0----0----0----0----0----0----0----0----0----0----0----0----0----0----0----0-|
B|--3----3----3----3----3----3----3----3----1----1----1----1----1----1----1----1-|
G|--0----0----0----0----0----0----0----0----0----0----0----0----0----0----0----0-|
D|--4----4----4----4----4----4----4----4----2----2----2----2----2----2----2----2-|
A|--5----5----5----5----5----5----5----5----3----3----3----3----3----3----3----3-|
E|-------------------------------------------------------------------------------|

Verses (also play this twice between verses, chorus before and after the bridge

e|------------------------------------------------------------------------------------3-|
B|--3----------3-----5--3--0-----------0--3--0--1--------1----3--1--------------0-------|
G|--------0----------------------0--------------------0-------------------0-------------|
D|-----4----------4-----------0--------------------2--------2----------0-----------0----|
A|--5--------5-------5--5--3--------3-----3--3--3-------------3--3----------------------|
E|------------------------------------------------------------------3--------3--------3-|

Bridge

e|-----0--------0------------------------------------------------------------|
B|--1--1--1--0--0--0--------------0-----------------0------------------------|
G|--0-----0--0-----0--------0-----------------0------------------------------|
D|-----2--------0--------2-----------2-----2-----------2---------------------|
A|--3-----3--3-----3--3--------3--------3--------3---------------------------|
E|---------------------------------------------------------------------------|

But I'm not ( last line of the chorus)(sing this line once and play this four times

e|------------------|
B|------------0-----|
G|--------0---------|
D|-----2----------2-|
A|--3---------------|
E|------------------|


Lyrics

Verse 1

I search the ground for plants that heal
The grand alliance hasn't bought me a deal
His finest hour has come and it's gone
It's going to take my whole life just to stop doing it wrong
Oh

Chorus

   Em           D      C      G
So blame me for what I cannot finish
   Em           D                C
My whole life I thought I was an op
     G
portunist

But I'm not (go to tab for this line)

Verse 2

Teaspoon in the morning, a tablespoon at night
My fortunes never made sense so soon neither did I
I come to you wrapped up in a rug with disguise
All this shocking behaviour never once caught your eye

Chorus

   Em           D      C      G
So blame me for what I cannot finish
   Em           D                C
My whole life I thought I was an op
     G
portunist

But I'm not (go to tab for this line)

Bridge (go to tab)

If there was something I won
Nobody told me I won

Chorus

   Em           D      C      G
So blame me for what I cannot finish
   Em           D                C
My whole life I thought I was an op
     G
portunist

But I'm not (go to tab for this line)
Добавлено: 08.08.2015
Вам также может быть интересно:
Другие материалы по этой песне:
  • Аккорды и текст

Страница создана 08.08.2015
http://primanota.ru/samantha-crain/churchill-chords.htm
Привет, Гость.
Предлагаем пройти революционный курс по гитаре.
Подарок от PrimaNota.Ru, забирай!