PrimaNota.ru - самый крупный в мире бесплатный архив песенных текстов, аккордов, табулатур и нот


Sam Powell - Visitors Center - таба, видео

Регистрация Запомнить меня
Войти через:  Facebook Google Twitter Vk Yandex Mail.ru

Sam Powell - Visitors Center - таба, видео

Печатать
Просмотров: 75
----------------------------------------------------|
----------------------------------------------------|
---9---------------------9------------------9-------|
---9---------------------9------------------9-------|
---7---------------------7------------------7-------|
------14(Bar slide down)----------------------------|

 . . . . .  .   .   .               . . . . .  .   .   .
----------------------------------------------------------------------------|
----------------------------------------------------------------------------|
----------------------------------------------------------7-----------------|
--------------7---9---10-9-9-7-------------------7---9------10-9-7----------|
-7-7-9-7-10-7---7---7----------10-7-7-7-9-7-10-7---7---7-----------10-7-----|
----------------------------------------------------------------------------|
 . . . . .  .   .   .                . . . . .
---------------------------------------------------------------|
---------------------------------------------------------------|
----------------------------------------9---9-9----------------|
--------------7---9---10-9-9-7---------------------------------|
-7-7-9-7-10-7---7---7----------10-7--7-7-7-7-7-----------------|
---------------------------------------------------------------|

---------------------------------------------------|
---------------------------------------------------|
---------------------------------------------------|
--2--0---------------------------------------------|
---------3-2-0-----------------0---2---3-2-2-0-----|
-2--2---2-2---0-2--2-2-4-2-5-2---2---2---------5-4-|

-------------------------------------------------|
-------------------------------------------------|
-------------------------------------------------|
--2--0----------------2---2-2--------------------|
---------3-2-0-----------------------------------|
-2--2---2-2---0-2--2-2-2-2-2--11(Bar Slide down)-|

-------------------------------|
-------------------------------|
-------------------------------|Repeat 4x
-------------------------------|
------5-----4-----6-----5------|
-5-0-5-5-0-5-5-0-5-5-0-5-5-0-5-|

---------------------------------------------|
---------------------------------------------|
---------------------------------------------|
---------------------------------------------|
---------------------------------------------|
-19p18-20-19-15p14-16-15-11p10-12-11-7p6-8-7-|

Than Repeat
Добавлено: 24.09.2013
Другие материалы по этой песне:
  • Аккорды и текст

Страница создана 24.09.2013
http://primanota.ru/sam-powell/visitors-center-chords.htm
Привет, Гость.
Предлагаем пройти революционный курс по гитаре.
Подарок от PrimaNota.Ru, забирай!