PrimaNota.ru - самый крупный в мире бесплатный архив песенных текстов, аккордов, табулатур и нот


Sam Garrett - Hope - таба, видео

Регистрация Запомнить меня
Войти через:  Facebook Google Twitter Vk Yandex Mail.ru

Sam Garrett - Hope - таба, видео

Печатать
Просмотров: 118
-------------------------------------------------------------------------------
                             HOPE - Sam Garrett
-------------------------------------------------------------------------------
Tabbed by: Alex

Noticed this wasn't up so tried to work it out the best I could, any 
comments/corrections/additions welcomed.

Tuning:EADGBe
Capo 4

INTRO

e|---------------------------------------------------------------------------|
B|-----0h1------1h0------3p0------0h1------1h0------3p0----------------------|
G|-----0--------0--------0--------0--------0--------0------------------------|
D|---------------------------------------------------------------------------| x2
A|---------------------------------------------------------------------------|
E|--3--------3--------3--------3--------3--------3---------------------------|

VERSE

e|---------------------------------------------------------------------------|
B|-----0h1------1h0------3p0------0h1------1h0------3p0----------------------|
G|-----0--------0--------0--------0--------0--------0------------------------|
D|---------------------------------------------------------------------------|
A|---------------------------------------------------------------------------|
E|--3--------3--------3--------3--------3--------3---------------------------|

e|---------------------------------------------------------------------------|
B|-----0h1------1h0------3p0------0h1------1h0------3p0----------------------|
G|-----0--------0--------0--------0--------0--------0------------------------|
D|---------------------------------------------------------------------------|
A|--3-------3---------3--------3--------3--------3---------------------------|
E|---------------------------------------------------------------------------|

Just repeat that.

************************************

| /   slide up
| \   slide down
| h   hammer-on
| p   pull-off
| ~   vibrato
| +   harmonic
| x   Mute note
| b   Bend
| pb  Pre-bend
| br  Bend release
| pbr Pre-bend release
| brb Bend release bend

************************************
Добавлено: 10.06.2015
Вам также может быть интересно:
Другие материалы по этой песне:
  • Аккорды и текст

Страница создана 10.06.2015
http://primanota.ru/sam-garrett/hope-chords.htm
Привет, Гость.
Предлагаем пройти революционный курс по гитаре.
Подарок от PrimaNota.Ru, забирай!