PrimaNota.ru - самый крупный в мире бесплатный архив песенных текстов, аккордов, табулатур и нот


Sam Flax - Fire Doesnt Burn Itself - аккорды и текст, бас-таба, видео

Регистрация Запомнить меня
Войти через:  Facebook Google Twitter Vk Yandex Mail.ru

Sam Flax - Fire Doesnt Burn Itself - аккорды и текст, бас-таба, видео

Печатать
Просмотров: 250
Fire Doesnt Burn Itself
Sam Flax
Intro: 
F#m A E B x4

Then play this 

 B   A   B              B   A    B              B   A    B                       D5
-2-2---|-2--------------2-2---|--2--------------2-2---|--2--------------------|--------------------|
-4-4---|-4--------------4-4---|--4--------------4-4---|--4--------------------|--------------------|
-4-4---|-4--------------4-4---|--4--------------4-4---|--4--------------------|-/7-7-7-7-7-7-7-7---|
-4-4-2-|-4--------------4-4-2-|--4--------------4-4-2-|--4--------------------|-/7-7-7-7-7-7-7-7---|
-2-2-0-|-2--------------2-2-0-|--2--------------2-2-0-|--2--------------------|-/5-5-5-5-5-5-5-5---|
-------|----------------------|-----------------------|-----------------------|--------------------|

Verse 1:

F#m    A     E               B          F#m A E B   
On the moon, drinking from a tomb
F#m      A      E               B       F#m A E B  
With the girls, standing in the room
F#m     A            E     B            F#m A E B  
Ooooooooh, stars are on fire
F#m      A     E    B   
With the stars ???
B A B      B A B         B A B       D5 (same as last part of the intro)
    Higher,    higher,       higher

Chorus:

A                     F#m
Fire doesn't burn itself
A                     F#m
Fire doesn't burn itself
A                     F#m
Fire doesn't burn itself
A            F#m    D    D D D
Fire doesn't burn itself

F#m A E B x2

Verse 2: Same as verse 1, I can't figure out what he is saying

Chorus:

A                     F#m
Fire doesn't burn itself
A                     F#m
Fire doesn't burn itself
A                     F#m
Fire doesn't burn itself
A            F#m    D    D D D
Fire doesn't burn itself

Solo / Bass Part:

F#m                    F#m                    Bm                     Bm
|----------------------|----------------------|----------------------|----------------------| 
|----------------------|----------------------|----------------------|----------------------|
|----------------------|----------------------|----------------------|----------------------|
|----------------------|----------------------|----------9-----------|----------9-----------|
|-9-----7--9-----------|-9-----7--9-----------|----5--9--------------|----5--9--------------|
|----9-----------------|----9-----------------|-7--------------------|-7--------------------| x6

Then:

E F#m | E F#m | E F#m | B D x2 

A                     (F#m)   (he only plays the A chord)
Fire doesn't burn itself
A                     (F#m)
Fire doesn't burn itself
A                     (F#m)
Fire doesn't burn itself
A                     (F#m)  
Fire doesn't burn itself


A                     F#m
Fire doesn't burn itself
A                     F#m
Fire doesn't burn itself
A                     F#m
Fire doesn't burn itself
A            F#m    D      D D D
Fire doesn't burn itself

Rest of the Song: 
F#m A E B
 
 


Добавлено: 07.07.2015
Другие материалы по этой песне:
  • Аккорды и текст

Страница создана 07.07.2015
http://primanota.ru/sam-flax/fire-doesnt-burn-itself-chords.htm
Привет, Гость.
Предлагаем пройти революционный курс по гитаре.
Подарок от PrimaNota.Ru, забирай!