PrimaNota.ru - самый крупный в мире бесплатный архив песенных текстов, аккордов, табулатур и нот


Sam Brown - Horse to the water - бас-таба, видео

Регистрация Запомнить меня
Войти через:  Facebook Google Twitter Vk Yandex Mail.ru

Sam Brown - Horse to the water - бас-таба, видео

Печатать
Просмотров: 430
Уроки эстрадного вокала в Санкт-Петербурге



Date: Sun, 22 Jan 2006 15:35:04 +0100 (CET)
From: [iso-8859-1] Jan Bjяfffffffffff6rklund 
Subject: b/brown_sam/horse_to_the_water.btab

Horse To The Water(Harrison concert).btab
Sam Brown
TablEdited by Poppamies
Tuning : E A D G 	Time Signature: 4/4

 |       |       |       |        |       |       |       |        
|--------------------------------|--------------------------------|
|---------------------two bars without bass-----------------------|
|--------------------------------|--------------------------------|
|--------------------------------|--------------------------------|

 |       |       |       |        |       |       |       |        
|--------------------------------|--------------------------------|
|----------------------------0/1-|3---3---3---3---3---3---3---3---|
|--------------------------------|--------------------------------|
|--------------------------------|--------------------------------|

 |       |       |       |        |       |       |       |        
|--------------------------------|--------------------------------|
|3---3---3---3---3---3-------1---|----------------1-------2-------|
|------------------------3-------|4-----------4-------------------|
|--------------------------------|--------------------------------|

 |       |       |       |        |       |       |       |        
|------------1-------------------|--------------------------------|
|3-------3-------3-------1-------|----------------------------1---|
|--------------------3-------1---|3-----------1---3---3-----------|
|--------------------------------|--------------------------------|

 |       |       |       |        |       |       |       |        
|--------------------------------|--------------------------------|
|3-------3-------3---3---1-------|--------------------------------|
|----------------------------2---|4---------------4---4-------1---|
|--------------------------------|------------4-------------------|

 |       |       |       |        |       |       |       |        
|--------------------------------|--------------------------------|
|------------------------1-------|--------------------1-------3---|
|3-------3-------3---3-------3---|----------------3---------------|
|--------------------------------|1---1---1---3-------------------|

 |       |       |       |        |       |       |       |        
|--------------------------------|--------------------------------|
|----------------3-------1-------|------------------------1---2---|
|--------------------3-------1---|4---------------4---4-----------|
|--------------------------------|------------4-------------------|

 |       |       |       |        |       |       |       |        
|------------1-------------------|--------------------------------|
|3---------------3-------1-------|----------------------------1---|
|--------------------3-------1---|3-----------1---3---3-----------|
|--------------------------------|--------------------------------|

 |       |       |       |        |       |       |       |        
|--------------------------------|--------------------------------|
|3---------------3-------1-------|----------------------------3---|
|------------3-------3-----------|4---------------4---4-----------|
|----------------------------1---|------------4-------------------|

 |       |       |       |        |       |       |       |        
|--------------------------------|--------------------------------|
|------------------------1---2---|3-------------------1-------3---|
|3-----------3---3---3-----------|----------------3---------------|
|--------------------------------|--------------------------------|

 |       |       |       |        |       |       |       |        
|----------------------------5---|3-------------------------------|
|3---------------3---5---6-------|----------------3---3-----------|
|--------------------------------|----------------------------1---|
|--------------------------------|--------------------------------|

 |       |       |       |        |       |       |       |        
|3-------------------------------|--------------------------------|
|------------------------1---1---|3-----------3---------------1---|
|----------------1---3-----------|----------------3---------------|
|--------------------------------|--------------------------------|

 |       |       |       |        |       |       |       |        
|--------------------------------|----------------------------1---|
|3-------------------1-----------|----------------3---------------|
|------------1---3-------3---2---|1-----------4-------------------|
|--------------------------------|--------------------------------|

 |       |       |       |        |       |       |       |        
|3---------------3-------1-------|--------------------------------|
|------------3-------3-------1---|3-----------3---------------1---|
|--------------------------------|----------------3---------------|
|--------------------------------|--------------------------------|

 |       |       |       |        |       |       |       |        
|----------------------------5---|3-----------3-------------------|
|3---------------3---5---6-------|----------------3-----------3---|
|--------------------------------|--------------------------------|
|------------6-------------------|--------------------------------|

 |       |       |       |        |       |       |       |        
|3-----------3-------------------|--------------------------------|
|------------------------1---2---|3-----------3---------------1---|
|----------------4---1-----------|----------------3-------3-------|
|--------------------------------|--------------------------------|

 |       |       |       |        |       |       |       |        
|--------------------------------|--------------------------------|
|3-------3-------3-------1---3---|----------------------------1---|
|------------3-------3-----------|4-------4-------4---1---4-------|
|--------------------------------|--------------------------------|

 |       |       |       |        |       |       |       |        
|--------------------------------|--------------------------------|
|--------------------------------|------------------------1---2---|
|4-------4---1---4---4---1---2---|3-------3---3---3---1-----------|
|--------------------------------|--------------------------------|

 |       |       |       |        |       |       |       |        
|--------------------------------|--------------------------------|
|3-----------------------1---2---|3---------------3-------1-------|
|----------------3---3-----------|--------------------3-------1---|
|--------------------------------|--------------------------------|

 |       |       |       |        |       |       |       |        
|--------------------------------|--------------------1-----------|
|----------------1-------2-------|3-----------1---3-------3---1---|
|4-----------4-------------------|--------------------------------|
|--------------------------------|--------------------------------|

 |       |       |       |        |       |       |       |        
|--------------------------------|--------------------------------|
|----------------------------1---|3---------------3-------1-------|
|3-----------3---3---3-----------|------------3-------3-------1---|
|--------------------------------|--------------------------------|

 |       |       |       |        |       |       |       |        
|--------------------------------|--------------------------------|
|--------------------------------|------------------------1---3---|
|4---------------1---4-------1---|3-------3-------3---3-----------|
|------------4-------------------|--------------------------------|

 |       |       |       |        |       |       |       |        
|--------------------------------|--------------------------------|
|3-------------------1-----------|----------------3-------1-------|
|------------1---3-------3-------|------------1-------3-------1---|
|----------------------------1---|1-------------------------------|

 |       |       |       |        |       |       |       |        
|--------------------------------|------------1-------------------|
|----------------1-------2-------|3-------3-------3---------------|
|4-----------4-------------------|------------------------1---2---|
|--------------------------------|--------------------1-----------|

 |       |       |       |        |       |       |       |        
|--------------------------------|--------------------------------|
|----------------------------1---|3---------------3-------1-------|
|3-----------3---3---3-----------|------------3-------3-------1---|
|--------------------------------|--------------------------------|

 |       |       |       |        |       |       |       |        
|--------------------------------|--------5-----------------------|
|--------------------------------|------------5-----------1---2---|
|4-----------4---4---4---4---1---|3---------------3---3-----------|
|--------------------------------|--------------------------------|

 |       |       |       |        |       |       |       |        
|--------------------------------|----1-------1-------1-----------|
|3-------------------1-------3---|----------------3-------3-------|
|------------1---3---------------|----------------------------1---|
|--------------------------------|--------------------------------|

 |       |       |       |        |       |       |       |        
|--------------------------------|--------------------------------|
|----------------------------1---|3---------------1---3-------1---|
|4---4-----------4---4-----------|------------3-----------3-------|
|--------------------------------|--------------------------------|

 |       |       |       |        |       |       |       |        
|--------------------------------|----------------1---------------|
|----------------------------1---|3-------------------3-------1---|
|3-----------3---3---3-----------|------------3-----------3-------|
|--------------------------------|--------------------------------|

 |       |       |       |        |       |       |       |        
|--------------------------------|--------------------------------|
|--------------------------------|--------------------------------|
|4-------------------4/6-4-------|3---------------3---1-----------|
|------------3---6-----------6---|------------3-----------4---3---|

 |       |       |       |        |       |       |       |        
|--------------------------------|----1-------1-------------------|
|----------------3-------1---2---|3---------------3-------1-------|
|------------1/3-----3-----------|--------------------3-------1---|
|1-------------------------------|--------------------------------|

 |       |       |       |        |       |       |       |        
|--------1-------3-------1-------|--------------------------------|
|--------------------------------|3-----------3---3---------------|
|4-----------4-------------------|------------------------1---2---|
|--------------------------------|--------------------1-----------|

 |       |       |       |        |       |       |       |        
|--------------------------------|--------------------------------|
|----------------------------1---|3---------------3-------1-------|
|3-----------3---3---3-----------|------------3-------3-----------|
|--------------------------------|----------------------------0---|

 |       |       |       |        |       |       |       |        
|--------------------------------|--------------------------------|
|--------------------------------|--------------------------------|
|4---------------4---4---4---0---|3-----------3---3---3---6---7---|
|------------4-------------------|--------------------------------|

 |       |       |       |        |       |       |       |        
|--------10------8---------------|--------------------------------|
|------------10------10----------|----------------------------10--|
|8-----------------------11--8---|8-------8-------8---10--11------|
|--------------------------------|--------------------------------|

 |       |       |       |        
|--------------------------------|
|------    and so on     --------|
|--------------------------------|
|--------------------------------|


Created with TablEdit http://www.tabledit.com/


Добавлено: 02.11.2013
Другие материалы по этой песне:
  • Аккорды и текст

Страница создана 02.11.2013
http://primanota.ru/sam-brown/horse-to-the-water-chords.htm
Привет, Гость.
Предлагаем пройти революционный курс по гитаре.
Подарок от PrimaNota.Ru, забирай!