PrimaNota.ru - самый крупный в мире бесплатный архив песенных текстов, аккордов, табулатур и нот


Sam & Dave - Hold On - бас-таба, видео

Регистрация Запомнить меня
Войти через:  Facebook Google Twitter Vk Yandex Mail.ru

Sam & Dave - Hold On - бас-таба, видео

Печатать
Просмотров: 91
Уроки эстрадного вокала в Санкт-Петербурге
as played by Donald "Duck" Dunn

Basstab by Jan Bjorklund, Finland; 
jani_bjorklund@yahoo.se 
You are welcome to request for basstabs!
Bienvenidos a pedirme transcripciones para el bajo!
Fingering and positions as suggested by TablEdit. 

TablEdited by Jan Bjorklund
Tuning : E A D G 	Time Signature: 4/4

 |       |       |       |        |       |       |       |        
|----The little note before------|--------------------------------|
|-the third beat is dead note----|--------------------------------|
|-----through out the song !-----|2---2---------2-2---2-----------|
|4---4---------4-4---4-----------|--------------------------------|

 |       |       |       |        |       |       |       |        
|--------------------------------|--------------------------------|
|--------------------------------|--------------------------------|
|4---4---------4-4---4-----------|--------------------------------|
|--------------------------------|4---4---------4-4---4-----------|

 |       |       |       |        |       |       |       |        
|--------------------------------|--------------------------------|
|--------------------------------|--------------------------------|
|--------6-----6-----------------|--------6-----6-----------------|
|4---------------4---4---2---3---|4---------------4---4---2---3---|

 |       |       |       |        |       |       |       |        
|--------------------------------|--------------------------------|
|--------------------------------|--------------------------------|
|--------6-----6-----------------|--------6-----6---------2---3---|
|4---------------4---4---2---3---|4---------------4---4-----------|

 |       |       |       |        |       |       |       |        
|--------------------------------|--------------------------------|
|--------6-----6-----------------|--------6-----6-----------------|
|4---------------4---4---2---3---|4---------------4---4---2---3---|
|--------------------------------|--------------------------------|

 |       |       |       |        |       |       |       |        
|--------------------------------|--------------------------------|
|--------6-----6-----------------|--------6-----6---------4---5---|
|4---------------4---4---2---3---|4---------------4---4-----------|
|--------------------------------|--------------------------------|

 |       |       |       |        |       |       |       |        
|--------------------------------|--------------------------------|
|--------------------------------|--------------------------------|
|--------------------------------|2---2---------2-2---2-----------|
|4---4---------4-4---4-----------|--------------------------------|

 |       |       |       |        |       |       |       |        
|--------------------------------|--------------------------------|
|--------------------------------|--------------------------------|
|4---4---------4-4---4-----------|--------------------------------|
|--------------------------------|4---4---------4-4---4---2---3---|

 |       |       |       |        |       |       |       |        
|--------------------------------|--------------------------------|
|--------------------------------|--------------------------------|
|--------6-----6-----------------|--------6-----6-----------------|
|4---------------4---4---2---3---|4---------------4---4---2---3---|

 |       |       |       |        |       |       |       |        
|--------------------------------|--------------------------------|
|--------------------------------|--------------------------------|
|--------6-----6-----------------|--------6-----6---------2---3---|
|4---------------4---4---2---3---|4---------------4---4-----------|

 |       |       |       |        |       |       |       |        
|--------------------------------|--------------------------------|
|--------6-----6-----------------|--------6-----6-----------------|
|4---------------4---4---2---3---|4---------------4---4---2---3---|
|--------------------------------|--------------------------------|

 |       |       |       |        |       |       |       |        
|--------------------------------|--------------------------------|
|--------6-----6-----------------|--------6-----6-----------------|
|4---------------4---4---2---3---|4---------------4---4-----------|
|--------------------------------|------------------------2---3---|

 |       |       |       |        |       |       |       |        
|--------------------------------|--------------------------------|
|--------------------------------|--------------------------------|
|--------------------------------|2---2---------2-2---2-----------|
|4---4---------4-4---4-----------|--------------------------------|

 |       |       |       |        |       |       |       |        
|--------------------------------|--------------------------------|
|--------------------------------|--------------------------------|
|4---4---------4-4---4-----------|--------------------------------|
|--------------------------------|4---4---------4-4---4---2---3---|

 |       |       |       |        |       |       |       |        
|--------------------------------|--------------------------------|
|--------------------------------|--------------------------------|
|--------------------------------|2---2---------2-2---2-----------|
|4---4---------4-4---4-----------|--------------------------------|

 |       |       |       |        |       |       |       |        
|--------------------------------|--------------------------------|
|--------------------------------|--------------------------------|
|4---4---------4-4---4-----------|------------------------2---3---|
|--------------------------------|4---4---------4-4---4-----------|

 |       |       |       |        |       |       |       |        
|--------------------------------|--------------------------------|
|--------6-----6-----------------|--------6-----6-----------------|
|4---------------4---4---2---3---|4---------------4---4---2---3---|
|--------------------------------|--------------------------------|

 |       |       |       |        |       |       |       |        
|--------------------------------|--------------------------------|
|--------6-----6-----------------|--------6-----6-----------------|
|4---------------4---4---2---3---|4---------------4---4-----------|
|--------------------------------|------------------------5---6---|

 |       |       |       |        |       |       |       |        
|--------------------------------|--------------------------------|
|--------------------------------|--------------------------------|
|--------9-----9-----------------|--------9-----9-----------------|
|7---------------7---7---5---6---|7---------------7---7-------7---|

 |       |       |       |        |       |       |       |        
|--------------------------------|--------------------------------|
|--------------------------------|--------------------------------|
|4-------4-----4-4---4-------4---|6-------6-----6-6---6-------6---|
|--------------------------------|--------------------------------|

 |       |       |       |        |       |       |       |        
|--------------------------------|--------------------------------|
|--------------------------------|--------------------------------|
|--------------------------------|--------------------------------|
|4---4---------4-4---4-------4-3-|2-------------2-2---2-------2h--|

 |       |       |       |        |       |       |       |        
|--------------------------------|--------------------------------|
|--------------------------------|--------------------------------|
|2-------------2-2---2-------2---|4-------------4-4---4-------4---|
|--------------------------------|--------------------------------|

 |       |       |       |        |       |       |       |        
|--------------------------------|--------------------------------|
|--------------------------------|--------------------------------|
|--------------------------------|2---2---------2-2---2---------2-|
|4-------------4-4---4---------4-|--------------------------------|

 |       |       |       |        |       |       |       |        
|--------------------------------|--------------------------------|
|--------------------------------|--------------------------------|
|4---4---------4-4---4---------4-|--------------------------------|
|--------------------------------|4---4---------4-4---4---2---3---|

 |       |       |       |        |       |       |       |        
|--------------------------------|--------------------------------|
|--------------------------------|--------------------------------|
|--------6-----6-----------------|--------6-----6-----------------|
|4---------------4---4---2---3---|4---------------4---4---2---3---|

 |       |       |       |        |       |       |       |        
|--------------------------------|--------------------------------|
|--------------------------------|--------------------------------|
|--------6-----6-----------------|--------6-----6---------2---3---|
|4---------------4---4---2---3---|4---------------4---4-----------|

 |       |       |       |        |       |       |       |        
|--------------------------------|--------------------------------|
|--------6-----6-----------------|--------6-----6-----------------|
|4---------------4---4---2---3---|4---------------4---4---2---3---|
|--------------------------------|--------------------------------|

 |       |       |       |        |       |       |       |        
|--------------------------------|--------------------------------|
|--------6-----6-----------------|--------6-----6-----------------|
|4---------------4---4---2---3---|4---------------4---4-----------|
|--------------------------------|------------------------2---3---|

 |       |       |       |        |       |       |       |        
|--------------------------------|--------------------------------|
|--------------------------------|--------------------------------|
|--------------------------------|2---2---------2-2---2---------2-|
|4---4---------4-4---4---------4-|--------------------------------|

 |       |       |       |        |       |       |       |        
|--------------------------------|--------------------------------|
|--------------------------------|--------------------------------|
|4---4---------4-4---4---------4-|--------------------------------|
|--------------------------------|4---4---------4-4---4---2---3---|

 |       |       |       |        |       |       |       |        
|--------------------------------|--------------------------------|
|--------------------------------|--------------------------------|
|--------------------------------|2---2---------2-2---2---------2-|
|4---4---------4-4---4---------4-|--------------------------------|

 |       |       |       |        |       |       |       |        
|--------------------------------|--------------------------------|
|--------------------------------|--------------------------------|
|4---4---------4-4---4---------4-|--------------------------------|
|--------------------------------|4---4---------4-4---4---2---3---|

 |       |       |       |        |       |       |       |        
|--------------------------------|--------------------------------|
|--------------------------------|--------------------------------|
|--------------------------------|2---2---------2-2---2---------2-|
|4---4---------4-4---4---------4-|--------------------------------|

 |       |       |       |        |       |       |       |        
|--------------------------------|--------------------------------|
|--------------------------------|--------------------------------|
|4---4---------4-4---4---------4-|--------------------------------|
|--------------------------------|4---4---------4-4---4-----------|

Transcribe! 5.2 transcription http://www.seventhstring.demon.co.uk/
Created with TablEdit http://www.tabledit.com/
     
Добавлено: 10.06.2013
Другие материалы по этой песне:
  • Аккорды и текст

Страница создана 10.06.2013
http://primanota.ru/sam-and-dave/hold-on-chords.htm
Привет, Гость.
Предлагаем пройти революционный курс по гитаре.
Подарок от PrimaNota.Ru, забирай!