PrimaNota.ru - самый крупный в мире бесплатный архив песенных текстов, аккордов, табулатур и нот


Sam Amidon - Sugar Baby - таба, видео

Регистрация Запомнить меня
Войти через:  Facebook Google Twitter Vk Yandex Mail.ru

Sam Amidon - Sugar Baby - таба, видео

Печатать
Просмотров: 94
Tabbed by:Keppens.d
E-mail:Keppens.d@gmail.com

Capo 4

Tuning:DGDGBE


  I got no sugar baby,now.            I got no honey baby now.
e|-------------------------------------|
B|-----3---3---3---3---3---3---3---3---|
G|-----2---2---2---2---2---2---2---2---|  2X
D|-------------------------------------|
G|---0---0---0---0---4---4---4---4-----|
D|-------------------------------------|


  Don't know what I can do   To seek peace with you
e|-------------------------------------------------|
B|-----3----3---------3---3-------3---3---3---3----|
G|-----2----2---------2---2-------0---0---0---0----|
D|-------------------------------------------------|
G|---0---0-----------------------------------------|
D|------------------4---4-------3---3---3---3------|

     Can't get along this a-way            Can't make a living this a-away.
e|---------------------------------------|
B|-----3---3----3---3------3---3---3---3-|
G|-----2---2----2---2------0---0---2---2-|
D|---------------------------------------|  2X
G|---0---0-------------------------------|
D|------------4---4------2---2---4---4---|


This goes the whole song through.
But like Amidon you can make it more interesting with some hammeron’s and extra notes 
which fit the chord.


Lyrics
I got no sugar baby, now
Got no honey baby, now
Got no use for a red rocking chair
Got no sugar baby, now
Got no honey baby, now

Got no sugar baby, now
Got no honey baby, now
Laid her in the shade
Gave her every dime I made
What more could a poor boy do?
What more could a poor boy do?

I got no sugar baby, now
Got no honey baby, now
Don't know what I can do
Said all I can say
Send you to your mama next pay day
Send you to your mama next pay day

Got no sugar baby, now
Got no honey baby, now
Who'll rock the cradle?
Who'll sing the song?
Who'll rock the cradle when I'm gone?
Who'll rock the cradle when I'm gone?



Got no sugar baby, now
Go no honey baby, now
Oh rock the cradle
Oh sing a song
I'll rock the cradle when you're gone
I'll rock the cradle when you're gone

I got no sugar baby, now
Got no sugar baby, now
Got no sugar baby, now

************************************

| /   slide up
| \   slide down
| h   hammer-on
| p   pull-off
| ~   vibrato
| +   harmonic
| x   Mute note
| b   Bend
| pb  Pre-bend
| br  Bend release
| pbr Pre-bend release
| brb Bend release bend

************************************
Добавлено: 13.02.2014
Другие материалы по этой песне:
  • Аккорды и текст

Страница создана 13.02.2014
http://primanota.ru/sam-amidon/sugar-baby-chords.htm
Привет, Гость.
Предлагаем пройти революционный курс по гитаре.
Подарок от PrimaNota.Ru, забирай!