PrimaNota.ru - самый крупный в мире бесплатный архив песенных текстов, аккордов, табулатур и нот


Sam Amidon - Short Life - таба, видео

Регистрация Запомнить меня
Войти через:  Facebook Google Twitter Vk Yandex Mail.ru

Sam Amidon - Short Life - таба, видео

Печатать
Просмотров: 96
-------------------------------------------------------------------------------
                             Short Life - Sam Amidon
-------------------------------------------------------------------------------

Tuning: Standard

e|---------------------------------------------------------------------------|
B|--3--------5--------6--------6--------6--------6--------6--------6---------|
G|--------0--------0-----0--------0--------0--------0--------0--------0------|
D|-----0--------0-----------7--------7--------7--------7--------7--------7---|
A|--1--------3--------5--------5--------5--------5--------5--------5---------|
E|---------------------------------------------------------------------------|

e|---------------------------------------------------------------------------|
B|--3--------5--------3--------3--------3--------3--------3--------3---------|
G|--------0--------0-----0--------0--------0--------0--------0--------0------|
D|-----0--------0-----------0--------0--------0--------0--------0--------0---|
A|--1--------3--------3--------3--------3--------3--------3--------3---------|
E|---------------------------------------------------------------------------|


The short life of trouble
Few more days of war
The short life of trouble
Few more days, a few more days

I know what you promised
It's been some time ago
You promised you would marry me
Standing on the ballroom floor

The short life of trouble
Few more days of war

I see the train a coming
Coming by a station
Now I'd rather be dead or in my grave
In the sea by dawn and go

Short life of trouble
Few more days of war
The short life of trouble
Few more days, a few more days
Добавлено: 20.05.2015
Вам также может быть интересно:
Другие материалы по этой песне:
  • Аккорды и текст

Страница создана 20.05.2015
http://primanota.ru/sam-amidon/short-life-chords.htm
Привет, Гость.
Предлагаем пройти революционный курс по гитаре.
Подарок от PrimaNota.Ru, забирай!