PrimaNota.ru - самый крупный в мире бесплатный архив песенных текстов, аккордов, табулатур и нот


Sam Amidon - Down The Line - таба, видео

Регистрация Запомнить меня
Войти через:  Facebook Google Twitter Vk Yandex Mail.ru

Sam Amidon - Down The Line - таба, видео

Печатать
Просмотров: 74
Уроки эстрадного вокала в Санкт-Петербурге
Авторы музыки: Sam Amidon

Standard tuning, capo on 4


------2--0--------0-------------2--0--------0---------
------2--0------3---3--0--------2--0------3---3p0--2--
------4--4----4-----------------4--4----4-------------
----4-------4-----------------4-------4---------------
--2-------------------------2-------------------------
------------------------------------------------------


-------2---0----------0----------------
-------2---0------0h3----3p0--2--------
-------4---4---4----------------------- (repeated many times)
----4----------------------------------
--2------------------------------------
---------------------------------------


occasionally
-------2---0----------0-----------------2--0---------
-------2---0------0h3----3p0--2---------2--0---------
-------4---4---4------------------------4--4---------
----4---------------------------------4--------------
----------------------------------------------------0
--3---------------------------------3-----------3----
Добавлено: 04.06.2016
Другие материалы по этой песне:
  • Аккорды и текст

Страница создана 04.06.2016
http://primanota.ru/sam-amidon/down-line-chords.htm
Привет, Гость.
Предлагаем пройти революционный курс по гитаре.
Подарок от PrimaNota.Ru, забирай!