PrimaNota.ru - самый крупный в мире бесплатный архив песенных текстов, аккордов, табулатур и нот


Salvador, Henri - Une chanson douce - текст песни, таба, видео

Регистрация Запомнить меня
Войти через:  Facebook Google Twitter Vk Yandex Mail.ru

Salvador, Henri - Une chanson douce - текст песни, таба, видео

Печатать
Просмотров: 151
Une Chanson Douce , a French Classic , by Henri Salvador

Here is the main melody of the song:

e|---------0-----------1-0-3-|---------0--------------1-0---|
B|-1-1-1-1---1-3-3-3-3-------|-1-1-1-1---1-3-3-3-3--------1-|
G|---------------------------|------------------------------|
D|---------------------------|------------------------------|
A|---------------------------|------------------------------|
E|---------------------------|------------------------------|

and the arpeggio played along the song :

       C           G7           C          G7
e|--------0---|-------1---|-------0---|-------1-------------|
B|------1-----|-----0-----|-----1-----|-----0---------------|
G|----0-------|---0-------|---0-------|---0-----------------|
D|------------|-0---------|-2---------|-0-------------------|
A|-3----------|-----------|-----------|---------------------|
E|------------|-----------|-----------|---------------------|

i Hope you WiLL eNjOy THE SONG =)
Добавлено: 30.06.2015
Другие материалы по этой песне:
  • Аккорды и текст

Страница создана 29.10.2014
http://primanota.ru/salvador-henri/une-chanson-douce-chords.htm
Привет, Гость.
Предлагаем пройти революционный курс по гитаре.
Подарок от PrimaNota.Ru, забирай!