PrimaNota.ru - самый крупный в мире бесплатный архив песенных текстов, аккордов, табулатур и нот


Salt Water Taffy - You Baby - бас-таба, видео

Регистрация Запомнить меня
Войти через:  Facebook Google Twitter Vk Yandex Mail.ru

Salt Water Taffy - You Baby - бас-таба, видео

Печатать
Просмотров: 39
Уроки эстрадного вокала в Санкт-Петербурге
Tabbed by: 6METAL6BASSIST6
E-mail: petergriffinav@gmail.com

Tuning: EADG

G|------------------------------------------------------------------------------------------------|
D|5---------5-5---------5-5---------5-5---------5-------------------------------------------------|
A|------------------------------------------------6---------6-6---------6-6---------6-6---------6-|
E|------------------------------------------------------------------------------------------------|

G|------------------------------------------------------------------------------------------------|
D|------------------------------------------------3-----3-----3-----3-----3-----3-----3-----3-----|
A|4---------4-4---------4-4---------4-4---------4-------------------------------------------------|
E|------------------------------------------------------------------------------------------------|

0:17

G|------------------------------------------------------------------------------------------------|
D|5---------5-5---------5-5---------5-----5-------------------------------------------------------|
A|------------------------------------5---------5-2---------2-2---------2-2---------2-2---------2-|
E|------------------------------------------------------------------------------------------------|

G|------------------------------------------------------------------------------------------------|
D|----------------------------------------------------------------------------------------7-------|
A|0---------0-0---7-----0-5---------5-5---------5-0---------0-0---------0-5---------5-5---------5-|
E|------------------------------------------------------------------------------------------------|

0:32

G|------------------------------------------------------------------------------------------------|
D|5-----------------------------------------------------------------------------------------------|
A|------------------------------------------------3-----------------------------------------------|
E|------------------------------------------------------------------------------------------------|

G|------------------------------------------------7-----------7-----------7-----------7-----------|
D|5-----------------------------------------------------------------------------------------------|
A|------------------------------------------------------5-----------5-----------5-----------5-----|
E|------------------------------------------------------------------------------------------------|

0:50

G|------------------------------------------------------------------------------------------------|
D|5-----5-----5-----5-----5-----5-----5-----5-----------------------------------------------------|
A|----------5-----------5-----------5-----5-----5-2-----2-----2-----2-----2-----2-----2-----2-----|
E|----------------------------------------------------------2-----------2-----------2-----2-----2-|

G|------------------------------------------------------------------------------------------------|
D|------------------------------------7-----7-----------------------------------------------------|
A|----------------------------------7-----7-----7-5---------5-5---------5-5---------5-5---------5-|
E|5-----5---0-5-----5---0-5-----5-----------------------------------------------------------------|

1:07

G|------------------------------------------------------------------------------------------------|
D|5---------5-5---------5-5---------5-----5-------------------------------------------------------|
A|------------------------------------5---------5-2---------2-2---------2-2---------2-2-------2-2-|
E|------------------------------------------------------------------------------------------------|

G|------------------------------------------------------------------------------------------------|
D|----------------------------------------------------------------------------------------7-------|
A|0---------0-0---7-----0-5---------5-5---------5-0---------0-0---------0-5---------5-5---------5-|
E|------------------------------------------------------------------------------------------------|

1:22

G|------------------------------------------------------------------------------------------------|
D|5-----------------------------------------------------------------------------------------------|
A|------------------------------------------------3-----------------------------------------------|
E|------------------------------------------------------------------------------------------------|

G|------------------------------------------------7-----------7-----------7-----------7-----------|
D|5-----------------------------------------------------------------------------------------------|
A|------------------------------------------------------5-----------5-----------5-----------5-----|
E|------------------------------------------------------------------------------------------------|

1:40

G|------------------------------------------------------------------------------------------------|
D|5-----5-----5-----5-----5-----5-----5-----5-----------------------------------------------------|
A|----------5-----------5-----------5-----5-----5-2-----2-----2-----2-----2-----2-----2-----2-----|
E|----------------------------------------------------------2-----------2-----------2-----2-----2-|

G|------------------------------------------------------------------------------------------------|
D|------------------------------------7-----7-----------------------------------------------------|
A|----------------------------------7-----7-----7-5---------5-5---------5-5---------5-5---------5-|
E|5-----5---0-5-----5---0-5-----5-----------------------------------------------------------------|

1:56

G|------------------------------------------------------------------------------------------------|
D|5---------5-5---------5-5---------5-5---------5-------------------------------------------------|
A|------------------------------------------------6---------6-6---------6-6---------6-6---------6-|
E|------------------------------------------------------------------------------------------------|

G|------------------------------------------------------------------------------------------------|
D|------------------------------------------------3-----3-----3-----3-----3-----3-----3-----3-----|
A|4---------4-4---------4-4---------4-4---------4-------------------------------------------------|
E|------------------------------------------------------------------------------------------------|

2:12

G|------------------------------------------------------------------------------------------------|
D|5-----5-----5-----5-----5-----5-----5-----5-----------------------------------------------------|
A|----------5-----------5-----------5-----5-----5-2-----2-----2-----2-----2-----2-----2-----2-----|
E|----------------------------------------------------------2-----------2-----------2-----2-----2-|

G|------------------------------------------------------------------------------------------------|
D|------------------------------------7-----7-----------------------------------------------------|
A|----------------------------------7-----7-----7-5---------5-5---------5-6---------6-6---------6-|
E|5-----5---0-5-----5---0-5-----5-------------------------------------5---------------------------|

2:29

G|------------------------------------------------------------------------------------------------|
D|6---------6-6---------6-6---------6-----6-------------------------------------------------------|
A|------------------------------------6---------6-3---------3-3---------3-3---------3-3---------3-|
E|------------------------------------------------------------------------------------------------|

G|----------------------------------------------------------------------------------------3-------|
D|----------------3-----------------------3-------------------------------1---------1-1-----------|  fades
A|1---------1-1---------1-1---------1-1---------1-1---------1-1---------1-------------------------| out here.
E|------------------------------------------------------------------------------------------------|
Добавлено: 11.06.2016
Другие материалы по этой песне:
  • Аккорды и текст

Страница создана 11.06.2016
http://primanota.ru/salt-water-taffy/you-baby-chords.htm
Привет, Гость.
Предлагаем пройти революционный курс по гитаре.
Подарок от PrimaNota.Ru, забирай!