PrimaNota.ru - самый крупный в мире бесплатный архив песенных текстов, аккордов, табулатур и нот


Saliva - Your Disease - текст песни, таба, бас-таба, видео

Регистрация Запомнить меня
Войти через:  Facebook Google Twitter Vk Yandex Mail.ru

Saliva - Your Disease - текст песни, таба, бас-таба, видео

Печатать
Просмотров: 293
Авторы музыки: Chris D'abaldo, Wayne Swinny, Josey Scott
Авторы текста: Josey Scott
Author/Artist: Saliva
Title: Your Disease
Transcribed by: J
Email: jreese@charter.net

Dropped D flat tuning low to high: Db,Ab,Db,Gb,Bb,Eb
The song opens with the turnaround used after each chorus.
On the bend, bend it and hold it til it repeats. 
The bridge isn't 100% but it fits well and is pretty close using
octaves and improving the picking.

-|----------------------------------------------------------------------------
-|----------------------------------------------------------------------------
-|-6-6-6-6-6-6-6-6b-6-6-6-6-6-6-6---------------------------------------------
-|----------------------------------------------------------------------------
-|----------------------------------------------------------------------------
-|----------------------------------------------------------------------------
  Intro/turnaround                                                            

-|----------------------------------------------------------------------------
-|----------------------------------------------------------------------------
-|----------------------------------------------------------------------------
-|----------------------------------------------------------------------------
-|-5br-3-5-3-0---0-3-0-5br-3-5-3-0--------------------------------------------
-|-5br-3-5-3-0---0-3-0-5br-3-5-3-0--------------------------------------------
  Intro                                                                       

-|----------------------------------------------------------------------------
-|----------------------------------------------------------------------------
-|----------------------------------------------------------------------------
-|----------------------------------------------------------------------------
-|-0-3-0-3-5-6--6-5h6---------------------------------------------------------
-|-0-3-0-3-5-6--6-5h6---------------------------------------------------------
  Verse                                                                       

-|----------------------------------------------------------------------------
-|----------------------------------------------------------------------------
-|----------------------------------------------------------------------------
-|-7-7--5-5--3-3--------------------------------------------------------------
-|-5-5--3-3--1-1--0-3-0-3-5-3-0-----------------------------------------------
-|----------------0-3-0-3-5-3-0-----------------------------------------------
  Chorus                                                                      

-|----------------------------------------------------------------------------
-|----------------------------------------------------------------------------
-|-7-7--7-7--6-6-6---6--------------------------------------------------------
-|----------------------------------------------------------------------------
-|-5---5-----4-----4----------------------------------------------------------
-|----------------------------------------------------------------------------
  Bridge                                                                      


Добавлено: 15.04.2012
Другие материалы по этой песне:

Страница создана 21.02.2012
http://primanota.ru/saliva/your-disease-chords.htm
Привет, Гость.
Предлагаем пройти революционный курс по гитаре.
Подарок от PrimaNota.Ru, забирай!