PrimaNota.ru - самый крупный в мире бесплатный архив песенных текстов, аккордов, табулатур и нот


Saliva - Starting Over - текст песни, таба, видео

Регистрация Запомнить меня
Войти через:  Facebook Google Twitter Vk Yandex Mail.ru

Saliva - Starting Over - текст песни, таба, видео

Печатать
Просмотров: 168
Уроки эстрадного вокала в Санкт-Петербурге
Авторы музыки: Paul Crosby, Bob Marlette, Dave Novotny, Wayne Swinny, Josey Scott
Авторы текста: Paul Crosby, Bob Marlette, Dave Novotny, Wayne Swinny, Josey Scott
Saliva - 'Starting Over'
From 'Blood-Stained Love Story' Album
Eb tuning: All strings down a half step (1 fret) 
tabbed by jjhand

This was a Tab Request on the Forum, and a nice melodic song.
Please rate and/or comment if you like so others can check this out too.


Intro: Main Rhythm - repeat the part after double bars until prechorus
e|-----||------------------------|----------------------------|
B|-x-x-||-2----3---x-x-2--0--x-x-|----------x-x-----------x-x-|
G|-x-x-||-4----4---x-x-2--2--x-x-|-2----2---x-x-----------x-x-| * sometimes is
D|-x-x-||-4----4---x-x-2--2--x-x-|-2----2---x-x-4--5--4*--x-x-|   a slide 5\4
A|-----||-2----2-------0--0------|-0----0-------2--2--2-------|
E|-----||------------------------|--------------0--0--0-------|


Lead Notes (0:12) - play 4x
e|-0-----0-----0--2--0-----|
B|----3-----3-----------3--|
G|-------------------------|
D|-------------------------|
A|-------------------------|
E|-------------------------|


Prechorus (0:46) - where % is repeat of same chord and Melody is played by Piano
e|-----------------|-----------------|-----------------|-----------------|
B|-----------------|-----------------|-----------------|-----------------|
G|-----------------|-4---------------|-----------------|-2---------------|
D|-5---------------|-4-%-%-%-%-%-%-%-|-5---------------|-2-%-%-%-%-%-%-%-|
A|-5-%-%-%-%-%-%-%-|-2---------------|-5-%-%-%-%-%-%-%-|-0---------------|
E|-3---------------|-----------------|-3---------------|-----------------|


Chorus (0:58) - both guitars, notes in () are ringing in next bar
e|-------------------------|-----------------------|
B|-------------------------|-----------------------|
G|-----------7--7----------|-----------------------|
D|-5----5----7--7-------7--|-(7)---7----7--7--7----|
A|-5----5----5--5-------7--|-(7)---7----7--7--7----|
E|-3----3---------------5--|-(5)---5----5--5--5----|

e|-------------------------|-----------------------|
B|-------------------------|-----------------------|
G|-----------7--7----------|-----------------------|
D|-5----5----7--7-------7--|-(7)---7----7\--2--2---|
A|-5----5----5--5-------7--|-(7)---7----7\--2--2---|
E|-3----3---------------5--|-(5)---5----5\--0--0---|

e|-------------------------|-----------------------|
B|-------------------------|-----------------------|
G|-----------7--7----------|-----------------------|
D|-5----5----7--7-------7--|-(7)---7----7--7--7----|
A|-5----5----5--5-------7--|-(7)---7----7--7--7----|
E|-3----3---------------5--|-(5)---5----5--5--5----|

e|-------------------------|-----------------------|
B|-------------------------|-----------------------|
G|-----------7--7----------|-----------------------|
D|-5----5----7--7-------7--|-(7)-------------------|
A|-5----5----5--5-------7--|-(7)-hold--------------|
E|-3----3---------------5--|-(5)-------------------|


Verse 2 - Play Main Rhythm throughout with Lead Notes part on guitar 2

Play Prechorus and Chorus again

Bridge (2:29) - 
e|-----------------|-----------------|-----------------|-----------------|
B|-----------------|-----------------|-----------------|-----------------|
G|-----------------|-----------------|-----------------|-----------------|
D|-9---------------|-7---------------|-2---------------|-5---------------|
A|-9-%-%-%-%-%-%-%-|-7-%-%-%-%-%-%-%-|-2-%-%-%-%-%-%-%-|-5-%-%-%-%-%-%-%-|
E|-7---------------|-5---------------|-0---------------|-3---------------|

e|-----------------|-----------------|-----------------|----------|
B|-----------------|-----------------|-----------------|----------|
G|-----------------|-----------------|-----------------|----------|
D|-9---------------|-7---------------|-5---------------|-5--------|
A|-9-%-%-%-%-%-%-%-|-7-%-%-%-%-%-%-%-|-5-%-%-%-%-%-%-%-|-5-hold---|
E|-7---------------|-5---------------|-3---------------|-3--------|

Bridge Lead part:
e|-10-10-10-10-10-10-10-10-|-9-9-9-9-9-9-9-9-|-----------------|-7-7-7-7-7-7-12-10-|
B|-------------------------|-----------------|-8-8-8-8-8-8-8-8-|-------------------|
G|-------------------------|-----------------|-----------------|-------------------|
D|-------------------------|-----------------|-----------------|-------------------|
A|-------------------------|-----------------|-----------------|-------------------|
E|-------------------------|-----------------|-----------------|-------------------|

e|-10-10-10-10-10-10-10-10-|-9-9-9-9-9-9-9-9-|-7-7-7-7-7-7-7-7-|-------------|
B|-------------------------|-----------------|-----------------|-10----------|
G|-------------------------|-----------------|-----------------|-------------|
D|-------------------------|-----------------|-----------------|-------------|
A|-------------------------|-----------------|-----------------|-------------|
E|-------------------------|-----------------|-----------------|-------------|

Play Main Riff again

Play Chorus again to end song



Key:
| /  slide up
| \  slide down
| h  hammer-on
| p  pull-off
| ~  vibrato
| +  harmonic
| x  Mute note
| () note is held over/ringing from previous bar
Добавлено: 23.06.2012
Другие материалы по этой песне:
  • Аккорды и текст

Страница создана 17.05.2012
http://primanota.ru/saliva/starting-over-chords.htm
Привет, Гость.
Предлагаем пройти революционный курс по гитаре.
Подарок от PrimaNota.Ru, забирай!