PrimaNota.ru - самый крупный в мире бесплатный архив песенных текстов, аккордов, табулатур и нот


Saliva - Ladies And Gentlemen - текст песни, таба, бас-таба, видео

Регистрация Запомнить меня
Войти через:  Facebook Google Twitter Vk Yandex Mail.ru

Saliva - Ladies And Gentlemen - текст песни, таба, бас-таба, видео

Печатать
Просмотров: 364
Авторы музыки: Paul Crosby, Bob Marlette, Dave Novotny, Wayne Swinny, Josey Scott
Авторы текста: Paul Crosby, Bob Marlette, Dave Novotny, Wayne Swinny, Josey Scott
Saliva - Ladies and Gentlemen
I just figured this out in about a half hour.  Dont have all the parts yet.


Intro
eb|---------------------------------------------------------------|
Bb|---------------------------------------------------------------|
Gb|---------------------------------------------------------------|
Db|---------------------------------------------------------------|
Ab|-----------------------------<5>---<7>--<7>-<7>--<7>—-<7>------|
Db|---2.7--2.7--2.7--2.7--2.7-------------------------------------|

Riff 1
eb|-----------------------------------------------------------|
Bb|-----------------------------------------------------------|
Gb|-----------------------------------------------------------|
Db|--3p0-0-5p0-0-3p0-0-5p0-0--3-2-0---------------------------|
Ab|--3p0-0-5p0-0-3p0-0-5p0-0--3-2-0---------------------------|
Db|--3p0-0-5p0-0-3p0-0-5p0-0--3-2-0---------------------------|


During the Verse, the first 2 times is the harmonics, and the second two measures is 
1 but palm muted.

PreChorus - this part i am still iffy on.  Not 100% correct
There is a part where he picks, but i think i just know the chords.

eb|---------------------------------------------------------------------|
Bb|---------------------------------------------------------------------|
Gb|----10--10--10-----7--7--7-----10--10--10----12--12--12--------------|
Db|----10--10--10-----7--7--7-----10--10--10----12--12--12--------------|
Ab|----8---8---8------5--5--5-----8---8---8-----10--10--10--------------|
Db|---------------------------------------------------------------------|

During ^^^^^^ part, the picking might associate with something like this.
Not sure tho.
eb|-------5---5---5---------1---1---1-----------------------------------|
Bb|---3h6---6---6---6---0h3---3---3---3---------------------------------|
Gb|---------------------------------------------------------------------|
Db|---------------------------------------------------------------------|
Ab|---------------------------------------------------------------------|
Db|---------------------------------------------------------------------|

Chorus
eb|---------------------------------------------------------|
Bb|---------------------------------------------------------|
Gb|---------------------------------------------------------|
Db|---12/---0-3---12/--0-3----12/--0-3----0-3-0-0-5-0-0-3-2-|
Ab|---12/---0-3---12/--0-3----12/--0-3----0-3-0-0-5-0-0-3-2-|
Db|---12/---0-3---12/--0-3----12/--0-3----0-3-0-0-5-0-0-3-2-|

After Chorus - little part
eb|----------------------------------------------------------|
Bb|----------------------------------------------------------|
Gb|--5--5--5--5/4--2--2--------------------------------------|
Db|--x--x--x--x----x--x--------------------------------------|
Ab|--3--3--3--3/2--0--0--------------------------------------|
Db|----------------------------------------------------------|

The other parts should be easy to figure out.  Everything u need is on here, except for 
solo.  I dont know that yet.
Добавлено: 08.06.2012
Другие материалы по этой песне:

Страница создана 22.02.2012
http://primanota.ru/saliva/ladies-and-gentlemen-chords.htm
Привет, Гость.
Предлагаем пройти революционный курс по гитаре.
Подарок от PrimaNota.Ru, забирай!