PrimaNota.ru - самый крупный в мире бесплатный архив песенных текстов, аккордов, табулатур и нот


Saliva - Dont Question My Heart - таба, видео

Регистрация Запомнить меня
Войти через:  Facebook Google Twitter Vk Yandex Mail.ru

Saliva - Dont Question My Heart - таба, видео

Печатать
Просмотров: 210
-------------------------------------------------------------------------------
                             Don't Question My Heart-Saliva
-------------------------------------------------------------------------------
Tabbed by:Steve Ward
Email:se24xxx@aol.com

Tuning:Standard

e|-------------------------------------------------------------------------|
B|------7h8p7-----8p7h9----8p7-6-------------------------------------------|
G|-------------------------------------------------------------------------|
D|-------------------------------------------------------------------------|
A|-------------------------------------------------------------------------|
E|-------------------------------------------------------------------------|

e|--------------------------------------------------------------------------|
B|--------7h8-----8p7h9----8-7-9--------------------------------------------|
G|--------------------------------------------------------------------------|
D|--------------------------------------------------------------------------|
A|--------------------------------------------------------------------------|
E|--------------------------------------------------------------------------|

e|--------------------------------------------------------------------------|
B|--------------------------------------------------------------------------|
G|--------------------------------------------------------------------------|
D|------5---7---9---7---5--x--5---7---9---7---5-----------------------------|
A|------5---7---9---7---5--x--5---7---9---7---5-----------------------------|
E|------3---5---7---5---3--x--3---5---7---5---3-----------------------------|

e|--------------------------------------------------------------------------|
B|--------------------------------------------------------------------------|
G|--------------------------------------------------------------------------|
D|---7-7-7-7-7-7-7-7-7-7--5-5-5-5-5-5-5-5-5-5--7-7-7-7-7-7-7-7-7-7----------|
A|---7-7-7-7-7-7-7-7-7-5--5-5-5-5-5-5-5-5-5-5--7-7-7-7-7-7-7-7-7-7----------|
E|---5-5-5-5-5-5-5-5-5-5--3-3-3-3-3-3-3-3-3-3--5-5-5-5-5-5-5-5-5-5----------|

e|--------------------------------------------------------------------------|
B|--------------------------------------------------------------------------|
G|--------------------------------------------------------------------------|
D|---5-5-5-5-5-5-5-5-5-5--5-7---5-7-7-7-7---5-7---5-7-7-7-7-----------------|
A|---5-5-5-5-5-5-5-5-5-5--5-7---5-7-7-7-7---5-7---5-7-7-7-7-----------------|
E|---3-3-3-3-3-3-3-3-3-3--3-5---3-5-5-5-5---3-5---3-5-5-5-5-----------------|

e|--------------------------------------------------------------------------|
B|--------------------------------------------------------------------------|
G|--------------------------------------------------------------------------|
D|---7-7-7-7-7-7-7-7-7-7--5-5-5-5-5-5-5-5-5-5--7-7-7-7-7-7-7-7-7-7----------|
A|---7-7-7-7-7-7-7-7-7-7--5-5-5-5-5-5-5-5-5-5--7-7-7-7-7-7-7-7-7-7----------|
E|---5-5-5-5-5-5-5-5-5-5--3-3-3-3-3-3-3-3-3-3--5-5-5-5-5-5-5-5-5-5----------|

e|--------------------------------------------------------------------------|
B|---------------------------------------------------6----8p7h8---7/12--12--|
G|--------------------------------------------------------------------------|
D|---9-9-9-9-9-9-9-9-9-9---5-7--7-5---5-7--7-5------------------------------|
A|---9-9-9-9-9-9-9-9-9-9---5-7--7-5---5-7--7-5------------------------------|
E|---7-7-7-7-7-7-7-7-7-7---3-5--5-3---3-5--5-3------------------------------|

e|--------------------------------------------------------------------------|
B|--------------------------------------------------------------------------|
G|--------------------------------------------------------------------------|
D|---5---7---9---7---5---x---5---7---9---7---5------------------------------|
A|---5---7---9---7---5---x---5---7---9---7---5------------------------------|
E|---3---5---7---5---3---x---3---5---7---5---3------------------------------|


e|--------------------------------------------------------------------------|
B|--------------------------------------------------------------------------|
G|--------------------------------------------------------------------------|
D|---7-7-7-7-7-7-7-7-7-7--5-5-5-5-5-5-5-5-5-5--7-7-7-7-7-7-7-7-7-7----------|
A|---7-7-7-7-7-7-7-7-7-7--5-5-5-5-5-5-5-5-5-5--7-7-7-7-7-7-7-7-7-7----------|
E|---5-5-5-5-5-5-5-5-5-5--3-3-3-3-3-3-3-3-3-3--5-5-5-5-5-5-5-5-5-5----------|


e|--------------------------------------------------------------------------|
B|--------------------------------------------------------------------------|
G|--------------------------------------------------------------------------|
D|---5-5-5-5-5-5-5-5-5-5--5-7---5-7-7-7-7---5-7---5-7-7-7-7-----------------|
A|---5-5-5-5-5-5-5-5-5-5--5-7---5-7-7-7-7---5-7---5-7-7-7-7-----------------|
E|---3-3-3-3-3-3-3-3-3-3--3-5---3-5-5-5-5---3-5---3-5-5-5-5-----------------|

e|--------------------------------------------------------------------------|
B|--------------------------------------------------------------------------|
G|--------------------------------------------------------------------------|
D|---7-7-7-7-7-7-7-7-7-7--5-5-5-5-5-5-5-5-5-5--7-7-7-7-7-7-7-7-7-7----------|
A|---7-7-7-7-7-7-7-7-7-7--5-5-5-5-5-5-5-5-5-5--7-7-7-7-7-7-7-7-7-7----------|
E|---5-5-5-5-5-5-5-5-5-5--3-3-3-3-3-3-3-3-3-3--5-5-5-5-5-5-5-5-5-5----------|

e|--------------------------------------------------------------------------|
B|--------------------------------------------------------------------------|
G|--------------------------------------------------------------------------|
D|---9-9-9-9-9-9-9-9-9-9---5-7--7-5---5-7--7-5------------------------------|
A|---9-9-9-9-9-9-9-9-9-9---5-7--7-5---5-7--7-5------------------------------|
E|---7-7-7-7-7-7-7-7-7-7---3-5--5-3---3-5--5-3------------------------------|

e|--------------------------------------------------------------------------|
B|--------------------------------------------------------------------------|
G|--------------------------------------------------------------------------|
D|---9-9-9-9-9-9-9-9-9-9--7-7-7-7-7-7-7-7-7-7--9-9-9-9-9-9-9-9-9-9----------|
A|---9-9-9-9-9-9-9-9-9-9--7-7-7-7-7-7-7-7-7-7--9-9-9-9-9-9-9-9-9-9----------|
E|---7-7-7-7-7-7-7-7-7-7--5-5-5-5-5-5-5-5-5-5--7-7-7-7-7-7-7-7-7-7----------|

e|--------------------------------------------------------------------------|
B|--------------------------------------------------------------------------|
G|--------------------------------------------------------------------------|
D|---5-5-5-5-5-5-5-5-5-5--7-7-7-7-7-7-7-7-7-7--5-5-5-5-5-5-5-5-5-5----------|
A|---5-5-5-5-5-5-5-5-5-5--7-7-7-7-7-7-7-7-7-7--5-5-5-5-5-5-5-5-5-5----------|
E|---3-3-3-3-3-3-3-3-3-3--5-5-5-5-5-5-5-5-5-5--3-3-3-3-3-3-3-3-3-3----------|

e|--------------------------------------------------------------------------|
B|---------------------------------------------------9-8-9------------------|
G|--------------------------------------------------------------------------|
D|---7-7-7-7-7-7-7-7-7-7--9-9-9-9-9-9-9-9-9-9-------------------------------|
A|---7-7-7-7-7-7-7-7-7-7--9-9-9-9-9-9-9-9-9-9-------------------------------|
E|---5-5-5-5-5-5-5-5-5-5--7-7-7-7-7-7-7-7-7-7-------------------------------|

e|--------------------------------------------------------------------------|
B|---7----8p7h8----9p8h9----------------------------------------------------|
G|--------------------------------------------------------------------------|
D|--------------------------------------------------------------------------|
A|--------------------------------------------------------------------------|
E|--------------------------------------------------------------------------|

e|--------------------------------------------------------------------------|
B|--------------------------------------------------------------------------|
G|--------------------------------------------------------------------------|
D|---7-7-7-7-7-7-7-7-7-7--5-5-5-5-5-5-5-5-5-5--7-7-7-7-7-7-7-7-7-7----------|
A|---7-7-7-7-7-7-7-7-7-7--5-5-5-5-5-5-5-5-5-5--7-7-7-7-7-7-7-7-7-7----------|
E|---5-5-5-5-5-5-5-5-5-5--3-3-3-3-3-3-3-3-3-3--5-5-5-5-5-5-5-5-5-5----------|

e|--------------------------------------------------------------------------|
B|--------------------------------------------------------------------------|
G|--------------------------------------------------------------------------|
D|---5-5-5-5-5-5-5-5-5-5--5-7---5-7-7-7-7---5-7---5-7-7-7-7-----------------|
A|---5-5-5-5-5-5-5-5-5-5--5-7---5-7-7-7-7---5-7---5-7-7-7-7-----------------|
E|---3-3-3-3-3-3-3-3-3-3--3-5---3-5-5-5-5---3-5---3-5-5-5-5-----------------|

e|--------------------------------------------------------------------------|
B|--------------------------------------------------------------------------|
G|--------------------------------------------------------------------------|
D|---7-7-7-7-7-7-7-7-7-7--5-5-5-5-5-5-5-5-5-5--7-7-7-7-7-7-7-7-7-7----------|
A|---7-7-7-7-7-7-7-7-7-7--5-5-5-5-5-5-5-5-5-5--7-7-7-7-7-7-7-7-7-7----------|
E|---5-5-5-5-5-5-5-5-5-5--3-3-3-3-3-3-3-3-3-3--5-5-5-5-5-5-5-5-5-5----------|

e|--------------------------------------------------------------------------|
B|--------------------------------------------------------------------------|
G|--------------------------------------------------------------------------|
D|---9-9-9-9-9-9-9-9-9-9---5-7--7-5---5-7--7-5---5-7--7-5---5-7--7-5--------|
A|---9-9-9-9-9-9-9-9-9-9---5-7--7-5---5-7--7-5---5-7--7-5---5-7--7-5--------|
E|---7-7-7-7-7-7-7-7-7-7---3-5--5-3---3-5--5-3---3-5--5-3---3-5--5-3--------|



h=Hammer on

p=Pull off

/=Slide up

Play the entire song in the exact order no changes necessary.



Добавлено: 02.04.2012
Другие материалы по этой песне:
  • Аккорды и текст

Страница создана 02.04.2012
http://primanota.ru/saliva/dont-question-my-heart-chords.htm
Привет, Гость.
Предлагаем пройти революционный курс по гитаре.
Подарок от PrimaNota.Ru, забирай!