PrimaNota.ru - самый крупный в мире бесплатный архив песенных текстов, аккордов, табулатур и нот


Sales - Getting It On - таба, видео

Регистрация Запомнить меня
Войти через:  Facebook Google Twitter Vk Yandex Mail.ru

Sales - Getting It On - таба, видео

Печатать
Просмотров: 113
Guitar 2 Intro/Main Riff:

E|---------------------------------------------------------------------------------------------|
B|---------------------------------------------------------------------------------------------|
G|---4-----4-----4-----4-----6-----6-----6-----6-----------------------------------------------|
D|5-----5-----5-----5-----7-----7-----7-----7-------7-----7-----7-----7-----4-----4-----4-----4|
A|-----------------------------------------------5-----5-----5-----5-----2-----2-----2-----2---|
E|---------------------------------------------------------------------------------------------|

Guitar 1 Intro:

E|--------------------------|
B|--17b~--15b~--15b~--15b~--|
G|--------------------------|
D|--------------------------|
A|--------------------------|
E|--------------------------|

Guitar 2 Pre-Chorus:

E|----------------------------------------------------------------------------------------|
B|-----------------------------------------------7-----7-----7--------7-----7-----7-------|
G|-----4-----4-----4--------6-----6-----6-----7-----7-----7-----7--7-----7-----7-----7----|
D|--5-----5-----5-----5--7-----7-----7-----7----------------------------------------------|
A|----------------------------------------------------------------------------------------|
E|----------------------------------------------------------------------------------------|

Guitar 2 Chorus:

E|---------------------------------------------------------|
B|--------5b-----------7b----------------------------------|
G|-----4------4-----6------6----------6-----------4--------|
D|--5------------7-----------7-----7-----7-----4-----4-----|
A|------------------------------5-----------2-----------2--|
E|---------------------------------------------------------|

Guitar 1 Chorus and Outro:

E|--------------------------------------------------------------|
B|--------------------------------------------------------------|
G|------11------11------------------11------11------11------11--|
D|------------------12------9-----------------------------------|
A|--10------10----------10------10------10------10------10------|
E|--------------------------------------------------------------|


End of Guitar 1 Chorus:

E|----------------------------|
B|----------------------------|
G|--11--11/14--11--9--9/11~---|
D|----------------------------|
A|----------------------------|
E|----------------------------|

Guitar 1 plays this between about 1:58 - 2:05:

E|----------------------------------------------------------|
B|------10------10------10------10------10------12------10--|
G|--11------11------11------11------11------11------11------|
D|----------------------------------------------------------|
A|----------------------------------------------------------|
E|----------------------------------------------------------|

Not sure how to denote the order of the song. Listen to it, I guess.
Добавлено: 15.11.2015
Вам также может быть интересно:
Другие материалы по этой песне:
  • Аккорды и текст

Страница создана 15.11.2015
http://primanota.ru/sales/getting-it-on-chords.htm
Привет, Гость.
Предлагаем пройти революционный курс по гитаре.
Подарок от PrimaNota.Ru, забирай!