PrimaNota.ru - самый крупный в мире бесплатный архив песенных текстов, аккордов, табулатур и нот


Sales - Chinese New Year - таба, видео

Регистрация Запомнить меня
Войти через:  Facebook Google Twitter Vk Yandex Mail.ru

Sales - Chinese New Year - таба, видео

Печатать
Просмотров: 136
Intro and Verse:

E|------------------------------------|
B|------------------------------------|
G|------------------------------------|
D|------------------------------------|
A|--5--55--5-5--7-7-------------------|
E|-------------------3--33--3-3--5-5--|

Verse and Chorus:

E|--------|
B|--------|
G|--6-----| listen for the rhythm
D|--7--5--| (chords also may be wrong but they work. comment if you hear something else)
A|--5--5--|
E|-----3--|

Post-(first) Chorus:

E|---------------------------------|
B|---------------------------------|
G|---------------------------------|
D|---------------------------------|  x2
A|--7~--7--9------7~--7--9---------|
E|------------7~-----------7~--5~--|

Bridge:

E|-------------------------------------------------------|
B|-------------------------------------------------------|
G|--9~--11~--7/9~--7~--11~--7/9~--11~--7--6--------------|
D|-------------------------------------------9--7--5/12--|
A|-------------------------------------------------------|
E|-------------------------------------------------------|

Ending:

E|---------------------------------------------------
B|---------------------------------------------------
G|--------------------------11-----------------------
D|--12--11--12--12--11--11------12--11--12--12--11~--
A|---------------------------------------------------
E|---------------------------------------------------

E|----------------------------------------------------------|
B|----------------------------------------------------------|
G|--------------------------11--------------------------11b-|
D|--12--11--12--12--11--11------12--11--12--12--11--11------| x2
A|----------------------------------------------------------|
E|----------------------------------------------------------|           


                                
Добавлено: 15.11.2015
Другие материалы по этой песне:
  • Аккорды и текст

Страница создана 15.11.2015
http://primanota.ru/sales/chinese-new-year-chords.htm
Привет, Гость.
Предлагаем пройти революционный курс по гитаре.
Подарок от PrimaNota.Ru, забирай!