PrimaNota.ru - самый крупный в мире бесплатный архив песенных текстов, аккордов, табулатур и нот


Sal Paradise - Welcome - таба, видео

Регистрация Запомнить меня
Войти через:  Facebook Google Twitter Vk Yandex Mail.ru

Sal Paradise - Welcome - таба, видео

Печатать
Просмотров: 97
Уроки эстрадного вокала в Санкт-Петербурге
		   Welcome
Sal Paradise: Furthur
Copyright 1996 Tooth & Nail Records
Tabbed by Collin Derrick
e-mail:ejd@china2.ygi.edu.cn

I tabbed two guitar parts for this song, one strumming and one picking
Strumming:
     D				C	 G
E|---2-2-2-0-0-0-2-2-2-0-0-0--0-0-0--3-3-3-3-3-3-|------1-1-1-1-|
B|---3-3-3-3-3-3-3-3-3-3-3-3--1-1-1--0-0-0-0-0-0-|------3-3-3-3-|
G|---2-2-2-2-2-2-2-2-2-2-2-2--0-0-0--0-0-0-0-0-0-|------3-3-3-3-|
D|----------------------------2-2-2--0-0-0-0-0-0-|------3-3-3-3-|
A|----------------------------3-3-3--2-2-2-2-2-2-|------1-1-1-1-|
E|----------------------------3-3-3--3-3-3-3-3-3-|------1-1-1-1-|
    repeat this /\ a couple of times and finish with this /\
                ||                                        ||

Picking: you'll have to improvise on the beat, also he messes around a little
E|------------------------------------------------------------------|
B|------------------------------------------------------------------|
G|-------------------------------------12-12-12-11------------12-11-|
D|------------------------------11-12--------------12-12-12-9-------|
A|---5-5-5-4-5/7/9-9-9-12-14-12-------------------------------------|
E|------------------------------------------------------------------|
*********************************************************************
							     ---------------------|
							     ---------------------|
	Finish with this part a couple of times  -16------------------|
							     ----15-12------------|
							     ----------12-12-10-9-|
							     ---------------------|     
Добавлено: 20.11.2013
Другие материалы по этой песне:
  • Аккорды и текст

Страница создана 20.11.2013
http://primanota.ru/sal-paradise/welcome-chords.htm
Привет, Гость.
Предлагаем пройти революционный курс по гитаре.
Подарок от PrimaNota.Ru, забирай!