PrimaNota.ru - самый крупный в мире бесплатный архив песенных текстов, аккордов, табулатур и нот


Sakura Gakuin - Friends - аккорды и текст, таба, видео

Регистрация Запомнить меня
Войти через:  Facebook Google Twitter Vk Yandex Mail.ru

Sakura Gakuin - Friends - аккорды и текст, таба, видео

Печатать
Просмотров: 90
Friends
Sakura Gakuin
-------------------------------------------------------------------------------
          FRIENDS ~Unplugged (Acoustic) - Sakura Gakuin (さくら学院)
-------------------------------------------------------------------------------
Tabbed by: Jack
E-mail: eggmobile123@gmail.com

Tuning: Standard


Bb
1,2,3

Intro:
e|-x--x-----x--x-----x--x----x--x----x---|
B|-x--x-----x--x-----x--x----x--x----x---|
G|-2--2-----0--0-----3--3----2--0----0---|   
D|-3--3-----3--3-----3--3----3--3----3---|
A|-3--3-----3--3-----3--3----3--3----3---|
E|-1--1-----1--1-----1--1----1--1----1---|


{Intro} x2


      F
Shitoshito ame furi YUUUTSU na asa
Am7
Mujou na getsuyoubi
Dm
Haiiro no sora wa Kokoro moyou
F                 F7
KENKA shita no kinyoubi
Bb             C         Am            Dm 
POKETTO no naka ni wa "GOMEN NE" wo shinobasete
Gm                     C7
Sunao ni nareru no wo matteru



  F
Watashitachi nita mono doushi da nante
Am7
Issho kuta ni shita garu kedo
Dm
Hontou wa sorezore ANTENA tatete
F                    F7
Chiccha na HAATO Migaiteru
Bb              C        Am            Dm
Yakeppachi ni natte wa Sugu ni me wo harashite
Gm           C7       F     F7
Nakijaku tte Warau nda



       Bb       C         Am            D
Jibun wo mamoru koto ni sei ippai de kizukenakatta
Gm       F           Bb        C
Fui ni anata wo kizutsuketa koto


{Harmonic on 5th fret of the low E string}


     F
Baby girl
           A                Dm
Donna toki mo Taisetsu na mono
             C      F  Bb
Sore wa "tomodachi" datte
      C         Am        D
Ieru you na Watashi ni shite kurete
Gm
Arigatou ne
C
Thank you! Oh, my friend



{Intro} x1


    F
Tomaranai oshaberi Tasogare toki
Am7
Itsumono kaerimichi
Dm
Raishuu no TESUTO Ano KONO koto
F                    F7
Mujaki ni hanashi tsuzukete
   Bb          C           Am          Dm
"Sayonara" tte iu no ga Sabishikunatta hi wa
   Gm       C7        F      F7
Kaisatsu de naga BANASHI


      Bb        C           Am        D
Konna heibon na hibi mo omoide ni kawaru keredo
Gm      F            Bb        C
Zutto futari wa tomodachi no mama



{Harmonic on 5th fret of the low E string}


      F
Baby girl
             A               Dm
Ano HIMAWARI mo Hikouki kumo mo
            C   F   Bb
Anata ni shirasetakute
        C      Am           D
Kuchizusanda Kono uta ni kizuite ne
  Gm  
Daisuki yo
C
Thank you! Oh, my friend

{Intro} x2


Solo:

e|------------8--------------------|
B|---/10--8------8--/6-------------|
G|-----------------------9---------|
D|---------------------------10----|
A|---------------------------------|
E|---------------------------------|

e|-------8-----------------------|
B|--/8-------------6-------------|
G|-----------9-------------------|
D|-------------------------------|
A|-------------------------------|
E|-------------------------------|

e|-------------------8-----------|
B|-------6-----------8-----------|
G|--/7-------7-7/9-------9-9/10--| 
D|-------------------------------|
A|-------------------------------|
E|-------------------------------|

Chords during solo: Bb, C, Am, Dm, Gm, Am, Bb

After solo: C, Asus4, A


     Dm         C         Am         D
RAIBARU to shinyuu no kao wo matsu futari dakara
Gm       F           Bb          C
Kasaneta te ni wa hoshi ga KIRAMEKU Kitto



     F
Baby girl
           A                Dm
Donna toki mo Taisetsu na mono
              C    F  Bb
Sore wa "tomodachi" datte
     C        Am         D 
Ieru you na Watashi ni shite kurete
Gm
Arigatou ne
C                  F
Thank you! Oh, my friend


D


Gm
Daisuki yo
C
Thank you! Oh, my friend

{Intro} x2

F 
(Not 100% sure on the final chord)
Добавлено: 17.12.2015
Другие материалы по этой песне:
  • Аккорды и текст

Страница создана 17.12.2015
http://primanota.ru/sakura-gakuin/friends-chords.htm
Привет, Гость.
Предлагаем пройти революционный курс по гитаре.
Подарок от PrimaNota.Ru, забирай!