PrimaNota.ru - самый крупный в мире бесплатный архив песенных текстов, аккордов, табулатур и нот


Saitou Chiwa - Staple Stable - бас-таба, видео

Регистрация Запомнить меня
Войти через:  Facebook Google Twitter Vk Yandex Mail.ru

Saitou Chiwa - Staple Stable - бас-таба, видео

Печатать
Просмотров: 58
------------------|----------------|------------------|-----------------|---------
                             SONG NAME - Band Name
------------------|----------------|------------------|-----------------|---------
Tabbed by: Sami Sarkanen
E-mail: sarkanensami@yahoo.com

First tab I've wrote. Used https://www.youtube.com/watch?v=wdyE1ZVVJrE for reference.
Sorry for the derp with the first chorus.
If you notice any mistakes feel free to contact me and I'll see to it.


Tuning EADG Standard

Verse 1
G|-----------------|-----------------|-----------------|------------------|------------------|
D|--------------2/-|-7-7-7-77-77-7-7-|-7-7-7-77-77---7-|-6-6-6-66-66-6-6--|-6-6-6-66-66---6--|
A|-----------------|-----------------|-------------7---|------------------|-------------7----|
E|-----------------|-----------------|-----------------|------------------|------------------|

G|-----------------|-----------------|-----------------|------------------|
D|-4-4-4-44-44-4-4\|-----------------|-----------------|------------------|
A|-----------------|-2-2-2-22-22-2-2-|-4-4-4-44-44-4-4-|-5-5-5-7---7------|
E|-----------------|-----------------|-----------------|-------------7-0--|

Pre-Chorus
G|-----------------|-----------------|-----------------|------------------|-----------------|
D|-----------------|-----------------|-----------------|------------------|-----------------|
A|-----------------|-----------------|-----------------|-------------6-7--|-----------------|
E|-5-5-5-5-4-4-4-4-|-2-2-2-2-4-4-4-4-|-5-5-5-5-4-4-4-4-|-2-2-2-2-0-7------|-5-5-5-5-4-4-4-4-|
                                                                              Chorus 1 
G|-----------------|--------------------|-----------------|------------------|-----------------|
D|-----------------|--------------------|-----------------|-----2/-99-99-----|------7---7---7\-|
A|-----------------|----------12-12-12\-|-5-5-5-4-5-5-5\--|-2------------9\--|-/7-7-------7----|
E|-2-2-2-2-0-0-0-0-|-5-5-5-5/-----------|-----------------|------------------|-----------------|

G|-----------------|-----------------|-----------------|------------------|-----------------|
D|-----------------|-6-6---6-7-6---6-|/9---------------|-------7--7---7\--|-------------6-7-|
A|-2--2--4--44-6-7-|-----7-------7---|----9\---------6-|-7--7-------7-----|-2--2--4--44-----|
E|-----------------|-----------------|-------7--77-9---|------------------|-----------------|

G|-----------------|----------------------|-----------------|------/13--11-----|-----------------|
D|-6-6---6-7-6---6-|/9--------------------|-----------------|----10--------1413|-11--------------|
A|-----7-------7---|----9\-/14--1414-14\--|------------7/9--|-11---------------|----11-----------|
E|-----------------|----------------------|-4-4-5-7--7------|------------------|-------9-7--7-6--|

G|-----------------|-----------------|-----------------|
D|------8----------|-------------6-7-|-9x--------------|
A|--/9-----9-------|-------2/9-9-----|-----------------|
E|-----------9\----|-2-2-2-----------|-----7\----------|

Interlude
G|/7-------------4/|/7---------7-9-7-|-6-------------9-|-11--9-11--9-11-13|-14--13-------------|
D|-----------------|-----------------|-----------/9----|------------------|--------16---14-----|
A|-----------------|-----------------|-----------------|------------------|----------------1412|
E|-----------------|-----------------|-----------------|------------------|--------------------|

G|-----------------|-----------------|-------------------|
D|-----------------|-------------1314|14-13-14-16--14----|
A|-12----------/14-|-16--------------|----------------14\|
E|-----------------|-----------------|-------------------|

Verse 2
G|-----------------|-----------------|-----------------|------------------|-----------------|
D|-----------------|-----------------|-----------------|------------------|-----------------|
A|-----------------|-----------------|-----------------|-2--2x--2---------|-4--4x--4--------|
E|-5--5x--5--------|-4--4x--4--------|-4--4x--4--------|------------------|-----------------|

G|------------------|-----------------|-----------------|------------------|-----------------|
D|------------------|-----------------|------------4-6--|------------------|-----------------|
A|-4--4x--4--4/14\--|-----------------|------7---7------|------------------|------/7---7-----|
E|------------------|5--5--5---5-0-4--|5--5-------------|-4--4--4---4-0-2--|4--4---------7-4-|

G|-----------------|-----------------|------------4-6--|------------------|
D|-----------------|-----------------|----------6------|------------------|
A|-----------------|---------7-------|4--4--4----------|5-5-5-7--7--------|
E|-2--2--2---2-4-5-|7--7--7----7---7-|-----------------|------------7-0---|

Pre-Chorus 2
G|-----------------|-----------------|-----------------|------------------|-----------------|
D|-----------------|-----------------|-----------------|------------------|-----------------|
A|-----------------|-----------------|-----------------|-------2/-7-7-----|-----------------|
E|-5-5-5-5-4-4-4-4-|-2-2-2-2-4-4-4-4-|-5-5-5-5-4-4-4-4-|-2-2-2--------7-0-|-5-5-5-5-4-4-4-4-|

G|-----------------|-----------------|-----------------|------------------|
D|-----------------|---------7---7\--|-----------------|------------------|
A|-----------------|-------7---7-----|-/5-5-5-4-5-5-5\-|-2//--------14\---|
E|-2-2-2-2-0-0-0-0-|-5-5-5-----------|-----------------|------------------|

Chorus 2
G|-----------------|-----------------|-----------------|------------------|-----------------|
D|------7---7---7\-|-----------------|-6-6---6-7-6---6-|/9----------------|-------7--7---7\-|
A|-/7-7-------7----|2--2--4--44-6-7--|-----7-------7---|----9\---------6--|-7--7-------7----|
E|-----------------|-----------------|-----------------|-------7--77-9----|-----------------|

G|-----------------|-----------------|---------------------|------------------|------/13--11-----|
D|-----------------|-6-6---6-7-6---6-|-/9-9----------------|------------------|----10--------1413|
A|-2--2--4--44-6-7-|-----7-------7---|------9/14-14---14\--|------------7-/9--|-11---------------|
E|-----------------|-----------------|-------------14------|-4-4-5/7---7------|------------------|

G|-----------------|---------------|----------------------|------------------|
D|-11--------------|------8--------|-------------------11-|-9----------------|
A|----11-----------|--/9-----9-----|-----/4--/9--11-12----|------------------|
E|------9-7---7-6--|-----------9\--|-2-2------------------|----7\----------3/|

Instrumental
G|-----------------|-----------------|-----------------|------------------|-------------------------|
D|-------------10--|-----------------|-----------------|-5---5/7--7-9---\-|-10-10-10-9-10-1010-9----|
A|-----------------|-----------------|-------------2/5-|---5--------------|----------------------10-|
E|/8-8-8-88-88----8|-8-8-8-88-88-8--\|-3-3-3-33-33-----|------------------|-------------------------|

G|-----------------|-----------------|-----------------|------------------|-----------------|
D|-----------------|-----------------|-5-5-5--5-55-5--\|------------------|-4---4/7--7-6----|
A|-----------------|---------------5-|-------5---------|-------------2/4--|---4----------9--|
E|-8-8-8-88-88-8--\|-3-3-3-33-33-3---|-----------------|-2-2-2-22-22------|-----------------|

G|-----------------|-----------------|
D|-----------------|-----------------|
A|-----------------|-------4/6-66-6-\|
E|-7-7-7-77-77-7-7\|-4-4-4-----------|

Bridge
G|-----------------|-----------------|-----------------|-----------------|-----------------|
D|-----------------|-----------------|-------4/6-66-3--|-----------------|-----------------|
A|-----------------|-----------------|----------------6|-4-4-4--4-44---4-|-5-5-5-55-55-5-5-|
E|-5-5-5-05-55-0-5-|-7-7-7-57-77-5-7-|-4-4-4-----------|-------4-----4---|-----------------|

G|-----------------|-----------------------|-----------------|-----------------|-----------------|
D|-------------6---|-----0/-1010-1010----10|-9-9-9--9-99---9-|-----------------|-9-9-9-99-99-9-\-|
A|-4-4-4-44-44---4-|-3-3--------------10---|-------9-----9---|-----------------|-----------------|
E|-----------------|-----------------------|-----------------|-7-7-7-77-77-7-7-|-----------------|

G|-----------------|-----------------|
D|-----------------|-------2/9----\--|
A|-5-5-5-55-55-5-5\|-2---------------|
E|-----------------|-----------------|

Pre-Chorus 3 
G|-----------------|-----------------|-----------------|-----------------|-----------------|
D|-----------------|-----------------|-----------------|--------------9/-|-14--------------|
A|-----------------|-----------------|-----------------|-----------------|-----------------|
E|-----------------|-----------------|-----------------|-----------------|-----------------|

G|-----------------|-----------------|---------------------|
D|-----------------|-----------------|---------------------|
A|-14----16-----\--|-11-------12-----|-/14----/14-1414-----|
E|-----------------|-----------------|-----14\---------14\-|

Chorus 3
G|-----------------|-----------------|-----------------|-----------------|-----------------|
D|------7---7---7\-|-----------------|-6-6---6-7-6---6-|-/9-----/9--9----|------7--7---7\--|
A|-/7-7-------7----|2--2--4--44-6-7--|-----7-------7---|-----9\----9---9\|-/7-7------7-----|
E|-----------------|-----------------|-----------------|-----------------|-----------------|

G|-----------------|-----------------|---------------------|-----------------|------/13--11-----|
D|-----------------|-6-6---6-7-6---6-|-/9------------------|-----------------|----10--------1413|
A|-2--3--4--44-6-7-|-----7-------7---|-----9\-/14-1414-14\-|-------------7/9-|-11---------------|
E|-----------------|-----------------|---------------------|-4-4-5-7----7----|------------------|

G|-----------------|---------------|-------------------|------------------|-----------------|
D|-11--------------|------8--------|-------------7-----|-9----------------|-----------------|
A|----11-----------|--/9-----9-----|-------2/9-9---9---|------------------|-/12-------------|
E|------9-7---7-6--|-----------9\--|-2-2-2-------------|----7\------------|-----------------|

G|-----------------|-14--------------|
D|-----------------|-----------------|
A|-----------------|-----------------|
E|-----------------|-----------------|


| /  slide up
| \  slide down
| h  hammer-on
| p  pull-off
| ~  vibrato
| +  harmonic
| x  Mute note
===============================================================================
Добавлено: 30.12.2015
Другие материалы по этой песне:
  • Аккорды и текст

Страница создана 30.12.2015
http://primanota.ru/saitou-chiwa/staple-stable-chords.htm
Привет, Гость.
Предлагаем пройти революционный курс по гитаре.
Подарок от PrimaNota.Ru, забирай!