PrimaNota.ru - самый крупный в мире бесплатный архив песенных текстов, аккордов, табулатур и нот


Saintseneca - Grey Flag - таба, видео

Регистрация Запомнить меня
Войти через:  Facebook Google Twitter Vk Yandex Mail.ru

Saintseneca - Grey Flag - таба, видео

Печатать
Просмотров: 100
Grey Flag - Saintseneca
Transcribed by Tim Ronco

Capo 1

Notes in parenthesis () are optional. Sometimes they're played, sometimes they're not.

3/4 timing so like a waltz 1-2-3, 1-2-3,

INTRO
  G           Em          D
e-------0-----------0------------------------------|
B-------0-----------0-----------------3------------|
G-------0---0-------0---0-2/4-4-4-4-4-4-4-4-0-0-0--|
D-5-5-5-5-5-0-2-2-2-2-2-0-0---0-0-0-0-0-0-0-4-4-0--|
A--------------------------------------------------|
E--------------------------------------------------|

VERSE
       When you are talking to me
e-------0-----------0------------------------------|
B(0)----0-----------0------------------------------|
G-0-0-0-0---0-------0---0-2-2-2-2-2-2-2-2-2-2-0-0--|
D-5-5-5-5-5-0-2-2-2-2-2-0-0-0-0-0-0-0-0-0-0-0-0-0--|
A--------------------------------------------------|
E--------------------------------------------------|

       like you know what to say
e-------0-----------0------------------------------|
B(0)----0-----------0------------------------------|
G-0-0-0-0---0-------0---0-2-2-2-2-2-2-2-2-2-2-0-0--|
D-5-5-5-5-5-0-2-2-2-2-2-0-0-0-0-0-0-0-0-0-0-0-0-0--|
A--------------------------------------------------|
E--------------------------------------------------|

        I want to spit in your face
e-------0-----------0------------------------------|
B(0)----0-----------0-----------------3------------|
G-0-0-0-0---0-------0---0-2/4-4-4-4-4-4-4-4-0-0-0--|
D-5-5-5-5-5-0-2-2-2-2-2-0-0---0-0-0-0-0-0-0-4-4-0--|
A--------------------------------------------------|
E--------------------------------------------------|

e-------0-----------0------------------------------|
B(0)----0-----------0------------------------------|
G-0-0-0-0---0-------0---0-2-2-2-2-2-2-2-2-2-2-0-0--|
D-5-5-5-5-5-0-2-2-2-2-2-0-0-0-0-0-0-0-0-0-0-0-0-0--|
A--------------------------------------------------|
E--------------------------------------------------|

CHORUS
        How can you forget me?
e-------0-----------0------------------------------|
B(0)----0-----------0------------------------------|
G-0-0-0-0---0-------0---0-2-2-2-2-2-2-0-2-2-0-0-0--|
D-5-5-5-5-5-0-2-2-2-2-2-0-0-0-0-0-0-0-0-0-0-0-0-0--|
A--------------------------------------------------|
E--------------------------------------------------|

        How can you forgive me after so long?
e-------0-----------0------------------------------|
B(0)----0-----------0-----------------3------------|
G-0-0-0-0---0-------0---0-2/4-4-4-4-4-4-4-4-0-0-0--|
D-5-5-5-5-5-0-2-2-2-2-2-0-0---0-0-0-0-0-0-0-4-4-0--|
A--------------------------------------------------|
E--------------------------------------------------|

       How can you forget me?
e-------0-----------0------------------------------|
B(0)----0-----------0------------------------------|
G-0-0-0-0---0-------0---0-2-2-2-2-2-2-2-2-2-2-0-0--|
D-5-5-5-5-5-0-2-2-2-2-2-0-0-0-0-0-0-0-0-0-0-0-0-0--|
A--------------------------------------------------|
E--------------------------------------------------|

       How can you forgive me after so long?
e-------0-----------0------------------------------|
B(0)----0-----------0------------------------------|
G-0-0-0-0---0-------0---0-2-2-2-2-2-2-2-2-2-2-0-0--|
D-5-5-5-5-5-0-2-2-2-2-2-0-0-0-0-0-0-0-0-0-0-0-0-0--|
A--------------------------------------------------|
E--------------------------------------------------|

INTERLUDE
e-0-0-0-0-0-0-0-0-0-0-0-0-0-0-0-0-0-0-0-0-0-0-0-0--|
B-0-0-0-0-0-0-0-0-0-0-0-0-0-0-0-0-0-0-0-0-0-0-0-0--|
G-0-0-0-0-0-0-0-0-0-0-0-0-0-0-0-0-0-0-0-0-0-0-0-0--|
D-2-2-2-2-2-2-4-4-4-4-4-4-5-5-5-5-5-5-7-7-7-7-7-7--| x3
A-2-2-2-2-2-2-x-x-x-x-x-x-5-5-5-5-5-5-7-7-7-7-7-7--|
E-0-0-0-0-0-0-2-2-2-2-2-2-3-3-3-3-3-3-5-5-5-5-5-5--|

BRIDGE
And wait I'm on your side still
  G     G     G     Em    C     C     C     C
e-3-3-3-3-3-3-3-3-3-0-0-0-3-3-3-3-3-3-3-3-3-3-3-3--|
B-0-0-0-0-0-0-0-0-0-0-0-0-1-1-1-1-1-1-1-1-1-1-1-1--|
G-0-0-0-0-0-0-0-0-0-0-0-0-0-0-0-0-0-0-0-0-0-0-0-0--|
D-0-0-0-0-0-0-0-0-0-2-2-2-2-2-2-2-2-2-2-2-2-2-2-2--|
A-2-2-2-2-2-2-2-2-2-2-2-2-3-3-3-3-3-3-3-3-3-3-3-3--|
E-3-3-3-3-3-3-3-3-3-0-0-0--------------------------|

Wait for something better (repeat)
  G     G     G     Em    C     C     C     C
e-3-3-3-3-3-3-3-3-3-0-0-0-3-3-3-3-3-3-3-3-3-3-3-3--|
B-0-0-0-0-0-0-0-0-0-0-0-0-1-1-1-1-1-1-1-1-1-1-1-1--|
G-0-0-0-0-0-0-0-0-0-0-0-0-0-0-0-0-0-0-0-0-0-0-0-0--|
D-0-0-0-0-0-0-0-0-0-2-2-2-2-2-2-2-2-2-2-2-2-2-2-2--|
A-2-2-2-2-2-2-2-2-2-2-2-2-3-3-3-3-3-3-3-3-3-3-3-3--|
E-3-3-3-3-3-3-3-3-3-0-0-0--------------------------|

When I see you washing dishes
I think some day you'll cut your hair
You'll get tired just like I do (repeat)
e------------------------------------------|
B------------------------------------------|
G-0-0-0-0-0-0-0-0-0-0-0-0-0-0-0-0-0-0-0-0--|
D-9-9-9-5-5-5-7-7-7-2-2-2-0-0-2-2-5-5-7-7--| x3
A------------------------------------------|
E------------------------------------------|

  We all lose, we all lose
e-0--|      -0-|
G-0--|      -0-|
B-0--|      -0-|
D-7--| x16  -9-| x32
A----|      ---|
E----|      ---|

     G    C
And wait I'm on your side still
G       C
Wait what's mine is all mine
G     C
Wait i'm on your side still
G     C
Wait what's mine is not mine

OUTRO
e----------------------------------------------------|
B----------------------------------------------------|
G-0-0-0-0-0-0-0-0-0-0-0-0-0-0-0-0-0-0-0--(let ring)--|
D-9-9-9-5-5-5-7-7-7-2-2-2-0-0-2-2-5-5-7--------------|
A----------------------------------------------------|
E----------------------------------------------------|

Notes:
Although the C chord is what I'm hearing, a C9 chord may sound better to your ear:

  C9
e-3--|
B-0--|
G-0--|
D-2--|
A-3--|
E----|

This song is originally played on a baritone ukulele. I tried to merge the acoustic 
guitar in the recording
with the main ukulele part, but occasionally they do different things (especially in the 
when I'm washing
dishes part).
Добавлено: 03.10.2015
Другие материалы по этой песне:
  • Аккорды и текст

Страница создана 03.10.2015
http://primanota.ru/saintseneca/grey-flag-chords.htm
Привет, Гость.
Предлагаем пройти революционный курс по гитаре.
Подарок от PrimaNota.Ru, забирай!