PrimaNota.ru - самый крупный в мире бесплатный архив песенных текстов, аккордов, табулатур и нот


Saintseneca - Fed Up With Hunger - таба, видео

Регистрация Запомнить меня
Войти через:  Facebook Google Twitter Vk Yandex Mail.ru

Saintseneca - Fed Up With Hunger - таба, видео

Печатать
Просмотров: 29
-------------------------------------------------------------------------------
                    Fed Up with Hunger - Saintseneca
-------------------------------------------------------------------------------
Tabbed by: NicholasFrey
E-mail: nickfrey95@gmail.com

Tuning: EADGBe

The original song is played on baritone ukulele but since the  baritone uke and
the guitar have the same tuning, it is easy to replicate on guitar. If you have
nylon strings more power to you.

Part I: Intro
e|--------------------3-----2-2-------------------------3---5---2------------|
B|----------3---------------------------------3------------------------------|
G|------------4---0-----------------------------4---0------------------------|
D|0-0h3h4h5-----5---0-2-2-2-2-2-----0-0h3h4h5-----5---0-2-2-2-2-2------------|
A|---------------------------------------------------------------------------|
E|---------------------------------------------------------------------------|

e|--------------------3-----2-2---3-2-0-----------------------2-----------------------7-|
B|----------3---------------------------3-1-0---------0---------0-------------0---------|
G|------------4---0---------------------------2-0---2---2---2-----2---------5---5---5---|
D|0-0h3h4h5-----5---0-2-2-2-2-2---0-0-0-0-0-0-0-0-2-------2-----------0---5-------5-----|
A|--------------------------------------------------------------------------------------|
E|--------------------------------------------------------------------------------------|

Part II:
e|7-7-7-7-7-7-7-7-2-2-2-2-3-3-3-0-10-10-10-10-10-10-10-10-12-12-10-10-------10-10-||
B|--------------------------------------------------------------------12-12-------||
G|--------------------------------------------------------------------------------||o
D|5-5-5-5-5-5-5-5-2-2-2-2-2-2-2-0-7--7--7--7--7--7--7--7--10-10-10-10-10-10-10-10-||o
A|--------------------------------------------------------------------------------||
E|--------------------------------------------------------------------------------||

Part III: Transition into strumming
e|3-5-5-5-3-5-5-5-3-5-3-5-5-5-5-5-0-0-0-0-0-0-0-0-0-0-0-0-0-0-0-0-||
B|0-0-0-0-0-0-0-0-0-0-0-0-0-0-0-0-3-3-3-3-3-3-3-3-1-1-1-1-1-1-1-1-||
G|0-0-0-0-0-0-0-0-0-0-0-0-0-0-0-0-4-4-4-4-4-4-4-4-2-2-2-2-2-2-2-2-||o
D|0-0-0-0-0-0-0-0-0-0-0-0-0-0-0-0-4-4-4-4-4-4-4-4-2-2-2-2-2-2-2-2-||o
A|x-x-x-x-x-x-x-x-x-x-x-x-x-x-x-x-x-x-x-x-x-x-x-x-x-x-x-x-x-x-x-x-||
E|x-x-x-x-x-x-x-x-x-x-x-x-x-x-x-x-x-x-x-x-x-x-x-x-x-x-x-x-x-x-x-x-||

Part IV: Transition at start of guitar riff
e|0-0-0-0-0-0-0-0-0-0-0-0-0-0-0-0-0-0-0-0-0-0-0-0-0-0-0-0-0-0-0-0-||
B|3-3-3-3-3-3-3-3-3-3-3-3-3-3-3-3-1-1-1-1-1-1-1-1-3-3-3-3-3-3-3-3-||
G|4-4-4-4-4-4-4-4-4-4-4-4-4-4-4-4-2-2-2-2-2-2-2-2-4-4-4-4-4-4-4-4-||o
D|5-5-5-5-5-5-5-5-4-4-4-4-4-4-4-4-2-2-2-2-2-2-2-2-4-4-4-4-4-4-4-4-||o
A|x-x-x-x-x-x-x-x-x-x-x-x-x-x-x-x-x-x-x-x-x-x-x-x-x-x-x-x-x-x-x-x-||
E|x-x-x-x-x-x-x-x-x-x-x-x-x-x-x-x-x-x-x-x-x-x-x-x-x-x-x-x-x-x-x-x-||

This is for the most part the studio version. Some little twists are made in the live
versions but I tried to keep it as close to the studio recording as possible. I got 
this tab by watching the same live performance video in half speed for about 2 hours 
so if their are any mistakes or changes that should be made than leave me a comment
or correction. I hope I have been helpful.


************************************

| /   slide up
| \   slide down
| h   hammer-on
| p   pull-off
| ~   vibrato
| +   harmonic
| x   Mute note
| b   Bend
| pb  Pre-bend
| br  Bend release
| pbr Pre-bend release
| brb Bend release bend

************************************
Добавлено: 26.02.2016
Другие материалы по этой песне:
  • Аккорды и текст

Страница создана 26.02.2016
http://primanota.ru/saintseneca/fed-up-with-hunger-chords.htm
Привет, Гость.
Предлагаем пройти революционный курс по гитаре.
Подарок от PrimaNota.Ru, забирай!