PrimaNota.ru - самый крупный в мире бесплатный архив песенных текстов, аккордов, табулатур и нот


Saints - Paranoia - таба, видео

Регистрация Запомнить меня
Войти через:  Facebook Google Twitter Vk Yandex Mail.ru

Saints - Paranoia - таба, видео

Печатать
Просмотров: 104


There are no words to this song.

1st tabs
--------------------------------------------------
--------------------------------------------------
--------------------------------------------------
--------------------------------------------------
--------0-----------0----0---------------0--------
--0--0----0--3--0----0------0---3--0--0----0--3---

2nd tabs
--------------------------------------------------
--------------------------------------------------
--------------------------------------------------
--------------------------------------------------
--------------------------------------------------
------0----0-----------------------1-1--1---------
--0-----0-----0---3--2---0---0--0----------0------

End.....




Добавлено: 09.12.2013
Другие материалы по этой песне:
  • Аккорды и текст

Страница создана 09.12.2013
http://primanota.ru/saints/paranoia-chords.htm
Привет, Гость.
Предлагаем пройти революционный курс по гитаре.
Подарок от PrimaNota.Ru, забирай!