PrimaNota.ru - самый крупный в мире бесплатный архив песенных текстов, аккордов, табулатур и нот


Saints - Know Your Product - таба, видео

Регистрация Запомнить меня
Войти через:  Facebook Google Twitter Vk Yandex Mail.ru

Saints - Know Your Product - таба, видео

Печатать
Просмотров: 143
artist: the saints
song: know your product
tuning: standard
tabbed by: batesyy

/intro.chorus

|---------------------|
|---------------------|
|---------------------|
|-----------8---------|
|-3----6----6----8----|
|-1----4---------6----|

|------------------|
|------------------|
|-10--8-----10--8--|
|--------10---------|
|------------------|
|------------------|

|------------------|
|------------------|
|-10--8-----12--10-|
|--------10---------|
|------------------|
|------------------|

|-------------------------------------------------|
|-------------------------------------------------|
|-10-10--8-----10-10--8-------10--8----10-10--8---|
|-----------10-----------10---------10----------10|
|-------------------------------------------------|
|-------------------------------------------------|


/verse

|------|
|------|
|------|
|------|
|-3----|
|-1----|

|--------|
|--------|
|--------|
|-5---3--|
|-3---1--| x2 
|--------|

|--------|
|--------|
|--------|
|-----5--|
|-3---3--|
|-1------|

Добавлено: 08.06.2012
Другие материалы по этой песне:
  • Аккорды и текст

Страница создана 08.06.2012
http://primanota.ru/saints/know-your-product-chords.htm
Привет, Гость.
Предлагаем пройти революционный курс по гитаре.
Подарок от PrimaNota.Ru, забирай!