PrimaNota.ru - самый крупный в мире бесплатный архив песенных текстов, аккордов, табулатур и нот


Sainthood Reps - Widow - таба, видео

Регистрация Запомнить меня
Войти через:  Facebook Google Twitter Vk Yandex Mail.ru

Sainthood Reps - Widow - таба, видео

Печатать
Просмотров: 84
Tuning - Half a step down

This is the intro/main riff of the song

Eb|----------------------------------|
Bb|----------------------------------|
Gb|---------8b---------------8b------|
Db|-----6-----6---6------6-----6---6-|
Ab|---7---7-----7------7---7-----7---|
Eb|-0----------------0---------------|
                                     or sometimes it does this between verses
Eb|-------------------------------0--|---------------------------------|
Bb|---------3---3p0---------3---3----|---------0---0-----------0---0---|
Gb|-----1-----1---------1-----1------|-----1-----1---1-----1-----1---1-|
Db|---2---2-----------2---2----------|---2---2-----------2---2---------|
Ab|-0---------------0----------------|-0---------------0---------------|
Eb|----------------------------------|---------------------------------|
Добавлено: 27.09.2013
Другие материалы по этой песне:
  • Аккорды и текст

Страница создана 12.06.2013
http://primanota.ru/sainthood-reps/widow-chords.htm
Привет, Гость.
Предлагаем пройти революционный курс по гитаре.
Подарок от PrimaNota.Ru, забирай!