PrimaNota.ru - самый крупный в мире бесплатный архив песенных текстов, аккордов, табулатур и нот


Sainthood Reps - Drone - таба, видео

Регистрация Запомнить меня
Войти через:  Facebook Google Twitter Vk Yandex Mail.ru

Sainthood Reps - Drone - таба, видео

Печатать
Просмотров: 81
Уроки эстрадного вокала в Санкт-Петербурге
This is only the basic parts. I haven't figured out the lead parts
Half-step down

Intro & verse chords
eb|------------------------------------
bb|------------------------------------
gb|----------7-7-7-7-------------------
db|-3-3-3-3--7-7-7-7--8-8-8-8--5-5-5-5-
ab|-3-3-3-3--5-5-5-5--8-8-8-8--5-5-5-5-
eb|-1-1-1-1--5-5-5-5--6-6-6-6--3-3-3-3-

Chorus
eb|-------------------------------
bb|-------------------------------
gb|-7---------------7-------------
db|-7-7-8-3-3-3-3---7-7-8-5-5-5-5-
ab|-5-7-8-3-3-3-3---5-7-8-5-5-5-5- (x2)
eb|-5-5-6-1-1-1-1---5-5-6-3-3-3-3-

Verse again

Bridge
eb|--------------------------------------------------------------------
bb|--------------------------------------------------------------------
gb|--------------------------------------------------------------------
db|-8-8-8-8-8-8-8-8--5-5-5-5-5-5-5-5--8-8-8-8-8-8-8-8--5-5-5-5-5-5-5-5-
ab|-8-8-8-8-8-8-8-8--5-5-5-5-5-5-5-5--8-8-8-8-8-8-8-8--5-5-5-5-5-5-5-5- (x2)
eb|-6-6-6-6-6-6-6-6--3-3-3-3-3-3-3-3--6-6-6-6-6-6-6-6--3-3-3-3-3-3-3-3-

Chorus x2

Verse chords quieter to the end

Lyrics 
A long trip home locked in the van
Sometimes it's a graveyard for hopes and dreams
It seems the earth keeps getting smaller and smaller
I want to dig a deep hole and fall out the other side

I found you,
I found you,
I found you,
but I have to lose you now

I built a garden


I planted all the seeds
But never waited for them to grow
You're all I think about on those days when
The world looks so much better
from my bedroom window

So it goes, I am waste on the distance
I was never worth waiting around you

Добавлено: 19.06.2016
Другие материалы по этой песне:
  • Аккорды и текст

Страница создана 19.06.2016
http://primanota.ru/sainthood-reps/drone-chords.htm
Привет, Гость.
Предлагаем пройти революционный курс по гитаре.
Подарок от PrimaNota.Ru, забирай!