PrimaNota.ru - самый крупный в мире бесплатный архив песенных текстов, аккордов, табулатур и нот


Saint Vitus - The Lost Feeling - текст песни, бас-таба, видео

Регистрация Запомнить меня
Войти через:  Facebook Google Twitter Vk Yandex Mail.ru

Saint Vitus - The Lost Feeling - текст песни, бас-таба, видео

Печатать
Просмотров: 65
Saint Vitus 

The Lost Feeling 

Very easy, Classic Doom Metal Song 

All Parts including lyrics 


      Intro/Main 
G/---------------------------------
D/---------------------------------
A/---------------------------------
E/--4--7-6-2--4-5-0-0-0-0-0-0-0-0--

   Played During First Solo 
G/--------------------------
D/-----------4-2------------
A/--------------------------
E/--9--7--4-----------------

G/---------------6-8--------
D/--------6--6-8------------
A/--------------------------
E/--9--7--------------------
 
    Played During Last Solo
G/-----------------------------------
D/-----------------------------------
A/-----------------------------------
E/--44--7-6-22--4-5-0-0-0-0-0-0-0-0--

I live inside you
Depression is my name
I'll crack your world with
Bitter mental games
You try to suppress me
But nothing holds me down
Just when you think you're happy
I come around

I was meant to be
A punishment to you
A thorn in your side
A cancer eating through
I twist reality
And make it hard to bear
I am the only thing left
When love isn't there

I'm taking over
I'll snap your mind in two
I'll make suicide seem
Like the right thing to do
You try to drown me
With alcohol and pills
But in the end you are
The only one that kills
Добавлено: 03.06.2016
Другие материалы по этой песне:
  • Аккорды и текст

Страница создана 21.07.2012
http://primanota.ru/saint-vitus/the-lost-feeling-chords.htm
Привет, Гость.
Предлагаем пройти революционный курс по гитаре.
Подарок от PrimaNota.Ru, забирай!