PrimaNota.ru - самый крупный в мире бесплатный архив песенных текстов, аккордов, табулатур и нот


Saint Vitus - Let Them Fall - таба, видео

Регистрация Запомнить меня
Войти через:  Facebook Google Twitter Vk Yandex Mail.ru

Saint Vitus - Let Them Fall - таба, видео

Печатать
Просмотров: 133
Tabbed by makas1n

Standard D tuning
Maybe it is obvious but hope someone will appreciate it
Chorus and verse part:
--------------
--------------
--------------
8------6------
8------6------
6------4------

Bridge part:
---------------------------------------------------------
---------------------------------------------------------
---------------------------------------------------------
8--8--8--8---8-13---13-15----8--8--8--8---8-13-----11b---
8--8--8--8---8-13---13-15----8--8--8--8---8-13-----11b---
6--6--6--6---6-11---11-13----6--6--6--6---6-11-----9b----

For solo just bend random notes on high frets. The worse and unharmonic sound - the better solo (;
Добавлено: 10.06.2015
Другие материалы по этой песне:
  • Аккорды и текст

Страница создана 10.06.2015
http://primanota.ru/saint-vitus/let-them-fall-chords.htm
Привет, Гость.
Предлагаем пройти революционный курс по гитаре.
Подарок от PrimaNota.Ru, забирай!