PrimaNota.ru - самый крупный в мире бесплатный архив песенных текстов, аккордов, табулатур и нот


Saint Vitus - Just Friends - таба, видео

Регистрация Запомнить меня
Войти через:  Facebook Google Twitter Vk Yandex Mail.ru

Saint Vitus - Just Friends - таба, видео

Печатать
Просмотров: 87
-------------------------------------------------------------------------
Song: Just Friends (Empty Love)
Band: Saint Vitus
Album: Hallow's Victim
Tabbed by: TrollFaceJesus
E-mail: trollfacejesus@gmail.com


Hey everyone, this is my tab for this song, and I think everything sounds
pretty good. All of the rhythm parts in the song are here, and the only
thing I didn't tab were the solos. Hopefully everything here is accurate,
and that you guys enjoy this tab! If you have any questions, corrections,
or comments, please feel free to leave me a message here, or to send me
an email! :D


Tuning: E-Standard


Riff 1
|-------------|
|-------------| [Note: For the intro, quickly strum the first two chords
|-------------| (counting the exact number is a little difficult, due to
|--7---5---5--| the speed), and then hold the last chord.]
|--7---5---5--| 
|--5---3---3--|


Riff 2
|------------------------------------------------------|
|------------------------------------------------------|
|--4-44-44-44-44-44-44-7---4-44-44-44-4-2-22-2---------| x4
|--4-44-44-44-44-44-44-7---4-44-44-44-4-2-22-2-5-55-5--|
|--2-22-22-22-22-22-22-5---2-22-22-22-2-0-00-0-5-55-5--|
|----------------------------------------------3-33-3--|


Riff 3
|-------------------------------------------------------|
|-------------------------------------------------------|
|--9-99-99-99-99-99-99-12---9-99-99-99-9-7-77-7-5-55-5--| x1
|--9-99-99-99-99-99-99-12---9-99-99-99-9-7-77-7-5-55-5--|
|--7-77-77-77-77-77-77-10---7-77-77-77-7-5-55-5-3-33-3--|
|-------------------------------------------------------|


Riff 2 x 1


Riff 4
|------------------------------------------------|
|------------------------------------------------|
|------------------------------------------------| x2
|--7-7--------7-7--------7-7--------7-7-5-5-5-5--|
|--7-7--5h7---7-7--5h7---7-7--5h7---7-7-5-5-5-5--|
|--5-5--------5-5--------5-5--------5-5-3-3-3-3--|


Riff 5
|-------------------------------------------------|
|-------------------------------------------------|
|--4---6-7--4---6-7--4---6-7--666-666-666-666-6\--| x1
|--4---6-7--4---6-7--4---6-7--666-666-666-666-6\--|
|--2---4-5--2---4-5--2---4-5--444-444-444-444-4\--|
|-------------------------------------------------|


Riff 2 x 4

Riff 3 x 1

Riff 2 x 1

Riff 4 x 2

Riff 5 x 1

Guitar Solo

Riff 4 x 2

Riff 5 x 1

Riff 2 x 2

Riff 3 x 1

Riff 2 x 1

Riff 4 x 2

Riff 5 x 2

Guitar Solo


Riff 6
|-------------------------|
|-------------------------|
|--4-44-44-44-44-44-44-9--| x3
|--4-44-44-44-44-44-44-9--|
|--2-22-22-22-22-22-22-7--|
|-------------------------|


Riff 7a
|---------|
|---------|
|--7---5--| x1
|--7---5--|
|--5---3--|
|---------|


Riff 6 x 3


Riff 7b
|------------------|
|------------------|
|--7---5---2-4--4--| x1
|--7---5---2-4--4--|
|--5---3---0-2--2--|
|------------------|


And that's just about it! :D


=-=-=-=-=-=-=-=-=-=-=-=-=-=-=-=-=-=

| /   slide up
| \   slide down
| h   hammer-on
| p   pull-off
| v   vibrato
| +   harmonic
| ·   Mute note
| b   Bend
| pb  Pre-bend
| br  Bend release
| pbr Pre-bend release
| brb Bend release bend

=-=-=-=-=-=-=-=-=-=-=-=-=-=-=-=-=-=
Добавлено: 18.11.2013
Другие материалы по этой песне:
  • Аккорды и текст

Страница создана 12.09.2013
http://primanota.ru/saint-vitus/just-friends-chords.htm
Привет, Гость.
Предлагаем пройти революционный курс по гитаре.
Подарок от PrimaNota.Ru, забирай!