PrimaNota.ru - самый крупный в мире бесплатный архив песенных текстов, аккордов, табулатур и нот


Saint Vitus - Burial At Sea - текст песни, таба, видео

Регистрация Запомнить меня
Войти через:  Facebook Google Twitter Vk Yandex Mail.ru

Saint Vitus - Burial At Sea - текст песни, таба, видео

Печатать
Просмотров: 309
Авторы музыки: Dave Chandler
Авторы текста: Dave Chandler
-------------------------------------------------------------------------
Song: Burial At Sea
Band: Saint Vitus
Album: Saint Vitus
Tabbed by: TrollFaceJesus
E-mail: trollfacejesus@gmail.com


Hey everyone, this is my tab for this song, and I think it sounds pretty
awesome. All of the rhythm parts of the song are in here, and the only
thing I didn't tab were the solos. Hopefully everything here is accurate,
and that you guys enjoy this tab! If you have any questions, corrections,
or comments, please feel free to leave a message here, or to send me an
email! :D


Tuning: E-Standard


Bass Intro
|---------------------------------|
|---------------------------------| x4
|----------2-1--------------------|
|--0---0---------0--0-0-0--2h3-3--|


Riff 1
|--------------------------|
|--------------------------|
|--------------------------| x4
|--2----9-8\---2----4/5-5--|
|--2----9-8\---2----4/5-5--|
|--0----7-6\---0----2/3-3--|


Riff 2a
|-------------------------------|
|-------------------------------|
|-------------------------------| x4
|--2----9--8--------------------|
|--2----9--8----7-6tr7----------|
|--0----7--6-------------6-7v\--|


Riff 2b
|-------------------------------|
|-------------------------------|
|--2----9--8--------------------| x2
|--2----9--8----7-6tr7----------|
|--0----7--6-------------6-7v\--|
|-------------------------------|


Riff 2a x 2


Riff 3
|------------------------|
|------------------------|
|--10-9-----4-3----------| x1
|--10-9-----4-3----------|
|--8--7-----2-1----1tr2--|
|------------------------|


Riff 1 x 2

Riff 2a x 4

Riff 2b x 2

Riff 2a x 2

Riff 3 x 1

Riff 1 x 3


Riff 4
|----------------------|
|----------------------|
|----------------------| x1
|----------------------|
|----------------------|
|--0--0-0--7-6v----7+--|


Riff 5
|-------|
|-------|
|--16\--| x1
|--16\--|
|--14\--|
|-------|


Riff 6
|-------------------|
|-------------------|
|--9------8---------| x6
|--9-x32--8----9-8--|
|--7------6----9-8--|
|--------------7-6--|


Riff 5 x 1

Guitar Solo

Riff 6 x 2


Riff 7
|--------------|
|--------------|
|--9-8---------| x1
|--9-8----9-8--|
|--7-6----9-8--|
|---------7-6--|


Riff 1 x 4

Riff 2a x 4

Riff 2b x 2

Riff 2a x 2

Riff 3 x 2

Riff 1 x 3


Riff 8
|---------------------------------|
|---------------------------------|
|---------------------------------| x1
|---------------------------------|
|---------------------------------|
|--0--0-0--7-6\--0--0-0-0--2h3-3--|


The song then ends with the main bass 
riff, and some incoherent guitar noise.


And that's just about it! :D


************************************

| /   slide up
| \   slide down
| h   hammer-on
| p   pull-off
| v   vibrato
| +   harmonic
| ·   Mute note
| b   Bend
| pb  Pre-bend
| br  Bend release
| pbr Pre-bend release
| brb Bend release bend

************************************
Добавлено: 30.11.2013
Другие материалы по этой песне:
  • Аккорды и текст

Страница создана 25.06.2012
http://primanota.ru/saint-vitus/burial-at-sea-chords.htm
Привет, Гость.
Предлагаем пройти революционный курс по гитаре.
Подарок от PrimaNota.Ru, забирай!