PrimaNota.ru - самый крупный в мире бесплатный архив песенных текстов, аккордов, табулатур и нот


Saint Saviour - I Remember - таба, видео

Регистрация Запомнить меня
Войти через:  Facebook Google Twitter Vk Yandex Mail.ru

Saint Saviour - I Remember - таба, видео

Печатать
Просмотров: 81
-------------------------------------------------------------------------------
                             I REMEMBER - Saint Saviour
-------------------------------------------------------------------------------

Capo on 7th freet
This tab is played in the entire song

         Am              C              G              E
e|---------------------------------------------------------------|
B|---------1--------------1---------------0--------------0-------|
G|---------2--------------0---------------0--------------1-------|
D|------2-----2--------2-----2---------0-----0--------2-----2----|
A|---0--------------3---------------1--------------2-------------|
E|---------------------------------------------------------------|

        F              G#
e|---------------------------------------------------------------|
B|---------1--------------4--------------------------------------|
G|---------2--------------5--------------------------------------|
D|------3-----3--------6-----6-----------------------------------|
A|---3--------------6--------------------------------------------|
E|---------------------------------------------------------------|


Am C G E


Am                                                   C
I remember when we were skin and bone, tough and cruel
            G       E              
but bruises brown and fade away
Am                                                 C  
trinkets in a coat pocket stolen from kids at school
         G      E               
burned a hole and fed a shame
Am                                                               C  
Someone should have told you that you'd always have a place to go
    G   E                                   
Oooooh, we thought you would have known
Am                                                               C 
Someone should have told you that you'd never find yourself alone
    G   E                      G   E
Oooooh, we lost you to the snow...


Am                                                C  
I remember when we would hang about in hollow trees
      G             E               
new sounds, sitting smoking leaves
Am                                           C 
walking past boarded up windows gets you down
     G              E                          
shit town, knew you couldn't breathe


Am                                                                C
Someone should have told you that you'd always have a place to go,
    G                 E
Oooooh, I thought you would have known
Am                                                                C  
Someone should have told you that you'd never find yourself alone,
    G          E                 F Am
Oooooh, we lost you to the snow


G#              Am               F        Am
Or maybe you climbed out after all?
G#              Am               F        Am
I didn't wait around to see you fall
G#              Am               F        Am                         
found you on facebook soft and warm
G# 
You must have known it... (x3)

Am C G E
Am
Добавлено: 30.03.2016
Другие материалы по этой песне:
  • Аккорды и текст

Страница создана 30.03.2016
http://primanota.ru/saint-saviour/i-remember-chords.htm
Привет, Гость.
Предлагаем пройти революционный курс по гитаре.
Подарок от PrimaNota.Ru, забирай!