PrimaNota.ru - самый крупный в мире бесплатный архив песенных текстов, аккордов, табулатур и нот


Saint Motel - Butch - таба, видео

Регистрация Запомнить меня
Войти через:  Facebook Google Twitter Vk Yandex Mail.ru

Saint Motel - Butch - таба, видео

Печатать
Просмотров: 134
-------------------------------------------------------------------------------
                             Butch - saint Motel
-------------------------------------------------------------------------------
Tabbed by: Ronald Karl
Email: ronnyboy57@gmail.com
Band Website: http://www.saintmotel.com/

Someone emailed me asking me to tab this out for them, so here goes!
Ran into a few issues with this tab. 1: Either they used a guitar with more strings than
mine has, or they tuned the top string to 1 half step above standard (which can damage
strings). So be careful and pay attention to the letters on the left of each tablature. 
Whoever is doing the solo should also be doing Guitar #1.
Tuning: Standard (Except High E string is changed to F for Guitar 1)
I'll try to do each part in the order that you hear it.

Intro Riff (Guitar 1):
F|-----------------------|
B|--------10---10---10---|
G|--7/11-(11)-(11)-(11)--|
D|-----------------------| x4
A|-----------------------|
E|-----------------------|

Main Riff: (Guitar 1):                 Then it quickly goes
F|-----9--9--9------8--8--8---|     F|-----9--9--9---8----|
B|-----10-10-10-----10-10-10--|     B|-----10-10-10--10---|
G|--11-----------11-----------|     G|--11----------------|
D|----------------------------| x3  D|--------------------|
A|----------------------------|     A|--------------------|
E|----------------------------|     E|--------------------|

Main Riff: (Guitar 2): STANDARD TUNING
e|----------------14--|
B|-15-12-15-12-15-----|
G|--------------------| x3
D|--------------------| (Listen for Timing)
A|--------------------|
E|--------------------|

Pre-Verse (Guitar 1 and 2)
F|----------------------|
B|----------------------|
G|-7-7--7777--7-7-7777--| x2
D|-7-7--7777--7-7-7777--|
A|-5-5--5555--5-5-5555--|
E|----------------------|

Verse 1 is Bass.
Main Riff: (Guitar 2) is played once during the verse as well with bass guitar in the background

End of Verse 1 (Guitar 1) (Yes those are multidigit numbers)
F|---------------------------------------------------|
B|-151515151515141414141414121212121212101010101010--|
G|---------------------------------------------------|
D|---------------------------------------------------| Fades right into next part
A|---------------------------------------------------|
E|---------------------------------------------------|

Verse 2 (Guitar 1):
F|--------------------------------------|
B|-10~-12-7~-5~---10~-12-7~-5---5~-7----|
G|-----------------------------------4~-|
D|--------------------------------------| x2 (Right after the first time, Guitar 2 plays
Main Riff.)
A|--------------------------------------|
E|--------------------------------------|

Post-Verse (Guitar 1)
F|---------------------------------------------------|
B|-101010101010121212121212141414141414151515151515--|
G|---------------------------------------------------|
D|---------------------------------------------------|
A|---------------------------------------------------|
E|---------------------------------------------------|
(Continued) (Not entirely sure about this part - might have to experiment a little)
F|----------------------|
B|-5b-6b-9b-11b-12b 14b-|
G|----------------------|
D|----------------------|
A|----------------------|
E|----------------------|

Main Riff (Guitar 1) x2
Main Riff (Guitar 2) x2

Pre-Verse (Guitar 1 and 2) x2

Verse 2 (Guitar 1) (Guitar 2 plays Main Riff right after again)

This time, on the 2nd time through you play:
F|-------------------------------------------|
B|-10~-12-7~-5---10~-12-7~-5-----3-5----5-7~-|
G|---------------------------4-6-----4-6-----|
D|-------------------------------------------|
A|-------------------------------------------|
E|-------------------------------------------|

Then, go back to the (Continued) part of Post-Verse

Intro Riff (Guitar 1) x4

Solo Pt. 1: (Guitar 2)
e|--------------------|
B|--------------------|
G|-7----------7-------|
D|-7(Hold)--7-7(Hold)-|
A|-5--------7-5-------|
E|----------5---------|

Solo Pt. 1: (Guitar 1) (This is the part you need it tuned up to F for)
F|-21p13h16h21p13h16h21p13h16h21p13h16-|
B|-------------------------------------|
G|-------------------------------------|
D|-------------------------------------| x8
A|-------------------------------------|
E|-------------------------------------|

Solo Pt. 2: (Guitar 1)
F|-21p13h16h21p13h16h21p13h16h21p13h16-|    F|-20p13h16h20p13h16h20p13h16h20p13h16-|
B|-------------------------------------|    B|-------------------------------------|
G|-------------------------------------|    G|-------------------------------------|
D|-------------------------------------|x2  D|-------------------------------------| x2
A|-------------------------------------|    A|-------------------------------------|
E|-------------------------------------|    E|-------------------------------------|

F|-18p13h16h18p13h16h28p13h16h28p13h16-|    F|-20p13h16h20p13h16h20p13h16h20p13h16-|
B|-------------------------------------|    B|-------------------------------------|
G|-------------------------------------|    G|-------------------------------------|
D|-------------------------------------|x2  D|-------------------------------------| x2
A|-------------------------------------|    A|-------------------------------------|
E|-------------------------------------|    E|-------------------------------------|

Now repeat that entire Solo Pt. 2 Section again.

Solo Pt. 2: (Guitar 2) (Second Time Only)
e|--------------------------------|
B|--------------------------------|
G|--------------------------------|
D|-14/16~--21/16~--14/16~--21/16~-|
A|--------------------------------|
E|--------------------------------|

Then It goes back into
Pre-Verse (Guitar 1 and 2) x2

Verse 3 (Guitar 1)
F|--------------------------------------------|
B|-/17-/17-/17-/17--12-14-15-17--12-14-17-17~-|
G|--------------------------------------------|
D|--------------------------------------------|
A|--------------------------------------------|
E|--------------------------------------------|

Then it goes back to Verse 1 I believe (But with only Bass)

You're Done!
Any questions or corrections, please email me. I did this entirely by ear only 5 minutes
after hearing the song the first time, so go easy on me. :D

************************************

| /   slide up
| \   slide down
| h   hammer-on
| p   pull-off
| ~   vibrato
| +   harmonic
| x   Mute note
| b   Bend
| pb  Pre-bend
| br  Bend release
| pbr Pre-bend release
| brb Bend release bend

************************************
Добавлено: 07.04.2012
Другие материалы по этой песне:
  • Аккорды и текст

Страница создана 07.04.2012
http://primanota.ru/saint-motel/butch-chords.htm
Привет, Гость.
Предлагаем пройти революционный курс по гитаре.
Подарок от PrimaNota.Ru, забирай!