PrimaNota.ru - самый крупный в мире бесплатный архив песенных текстов, аккордов, табулатур и нот


Sailormoon - Sailor Team No Theme - таба, видео

Регистрация Запомнить меня
Войти через:  Facebook Google Twitter Vk Yandex Mail.ru

Sailormoon - Sailor Team No Theme - таба, видео

Печатать
Просмотров: 317
                               SAILOR MOON

                         "Sailor Team no Theme"   

                       Transcribed by Ian Marquis
                      (ian.marquis@umit.maine.edu)


Note: There is an additional muted guitar part that underlays the entire song.
I have only tabbed the lead guitar, as it is the most obvious part.


       Dm           C    A#                C                        
|-----------------|-----------------|--------------------------3--|-----
|-5----6----------|-5----3----------|-6----5--------------5-------|-----
|------7----------|-5----3----------|-7----5----------5-----------|-----
|-5----7----------|-5----3----------|-8----5----------------------|-----
|-----------------|-----------------|-----------------------------|-----
|-----------------|-----------------|-----------------------------|-----
1                 2                 3                             4 

A7b9  A7        A7b9  A7                                           
6-----5----3----6-----5----5---|----------------------|-----------------
8-----8----5----8-----8----8---|-8----6----------5----|-----------------
9-----9---------9-----9--------|----------------------|-7---------------
7-----7----7----7-----7----7---|----------------------|-----------------
-------------------------------|----------------------|-----------------
-------------------------------|----------------------|-----------------
                               5                      6            

                                                                     
5----|-3--------8----12--15-|-18----17---15---18---17--|----------------
-----|----------------------|--------------------------|----------------
-----|----------------------|--------------------------|----------------
-----|----------------------|--------------------------|----------------
-----|----------------------|--------------------------|-------15-17----
-----|----------------------|--------------------------|--18------------
     7                      8                          20            

                                                                   
--------------|---------------------|-----------------------------------
--------------|--13-----------------|-----------------------------------
-----------14-|---------------------|-----------------------------------
15------15----|---------------------|-----------------------------------
-----17-------|---------------------|--1-----3-----5----3----5----------
--------------|-----1-----3----5----|-----------------------------------
              21                    22                             

                                                                   
-----|-----------------------------------|------------------------------
-----|-----------------------------------|------------------------------
-----|-----------------------------------|------------------------------
2----|--3-----3-----2----0-----2----3----|------------------------------
-----|-----------------------------------|--------0-----1----3----------
-----|-----------------------------------|--3---------------------------
     23                                  24                        

                                                                   
----------------|--1--10-8-----6--------------------|-------------------
------1----3----|-----11-10----8--------------------|-------------------
0---------------|-----------------------------------|-------------------
----------------|-----------------------------------|-------------------
----------------|-----------------------------------|--1-----3----------
----------------|-------------------1-----3----5----|-------------------
                25                                  26             

                                                                  
---------------------|-----------------------------------|--------------
---------------------|-----------------------------------|--------------
---------------------|-----------------------------------|--------------
----------------2----|--3-----3-----2----0-----2----3----|--------------
5----3----5----------|-----------------------------------|--------------
---------------------|-----------------------------------|--3-----------
                     27                                  28       

                                    Dm            C    A#            
----------------------------|--0----1----------|--0---------------|-----
----------------------------|-------3----------|--1----3----------|-----
----------------------------|--0----2----------|--0----3----------|-----
----------------------------|------------------|-------3----------|-----
0----------1-----1-----3----|------------------|------------------|-----
------3---------------------|------------------|------------------|-----
                            29                 30                 31 

     C                         A7b9  A7           A7b9  A7            
1----0----------|------0----3--6-----5----3----|--6-----5----5----5-----
3----1----------|--1-----------8-----8----5----|--8-----8---------8-----
3----0----------|--------------9-----9---------|--9-----9---------------
----------------|--------------7-----7----7----|--7-----7---------7-----
----------------|------------------------------|------------------------
----------------|------------------------------|------------------------
                32                             33                     

                                                                       
5--10------|--10---8----------------------------------|-----------------
-----------|------------10---8-----------10-----------|-----------------
-----------|-----------------11--10------13---12------|--10----10-9-----
-----------|-----------------15------12---------------|-----12----------
-----------|------------------------------------------|-----------------
-----------|------------------------------------------|-----------------
           34                                         35               

                                                                   
-----------------------------|-----------------8--10-13-18----17--------
-----------------------------|-----------8--10--------------------------
-----------------------------|--------10--------------------------------
12-10-12---------10----10-12-|--10-12-----------------------------------
-----------12-10----12-------|------------------------------------------
-----------------------------|------------------------------------------
                             36                                    

                                                                       
15---|--18----17--|-------|-------------------------|-------------------
-----|------------|-------|----------------------13-|-------------------
-----|------------|-------|-------------------14----|-------------------
-----|------------|-------|--------15------15-------|-------------------
-----|------------|-------|--15-17------17----------|-------------------
-----|------------|--18---|-------------------------|--1-----3----5-----
     37           48      49                        50                 

                                                                   
-----------------|-----------------------------------|------------------
-----------------|-----------------------------------|------------------
-----------------|-----------------------------------|------------------
-----------------|-------------2----3-----3-----2----|--0-----2---------
1-----3-----5----|--3----5---------------------------|------------------
-----------------|-----------------------------------|------------------
                 51                                  52            

                                                                   
----------------------|------------------------1--10-8-----6----|-------
----------------------|--------------1----3-------11-10----8----|-------
----------------------|--------0--------------------------------|-------
3---------------------|-----------------------------------------|-------
-----------0-----1----|--3--------------------------------------|-------
-----3----------------|-----------------------------------------|-------
                      53                                        54 

                                                                     
---------------------------------|--------------------------------------
---------------------------------|--------------------------------------
---------------------------------|--------------------------------------
---------------------------------|-------------2----3-----3-----2-------
----------------1-----3-----5----|--3----5------------------------------
1-----3----5---------------------|--------------------------------------
                                 55                                  

                                                                       
|-----------------------------------|-------------------|------1---3----
|-----------------------------------|-------------------|--3------------
|-----------------------------------|-------------------|---------------
|--0-----2----3---------------------|-------------------|---------------
|------------------------0----------|--1-----1-----3----|---------------
|------------------3-----------3----|-------------------|---------------
56                                  57                  61             

                                                                    
|--5---------5-----4-----|------3--------------------|------------------
|--9---------------8-----|--6-------5----3-----------|--6---3-----------
|------------------------|----------7--------5-------|----------5-------
|------------------------|---------------------------|------------------
|------------------------|---------------------------|------------------
|------------------------|---------------------------|------------------
62                       63                          64             

                                                                   
-----------------------|------------------|-----------------------------
-----------------------|------------------|-----------------------------
2-----------2----------|------------------|-----------------------------
----5---3-------5------|------------------|-----------------------------
-----------------------|------------------|--1-----3-----5----3---------
-----------------------|--1-----3----5----|-----------------------------
                       66                 67                       

                                                                   
-----------|-----------------------------------|------------------------
-----------|-----------------------------------|------------------------
-----------|-----------------------------------|------------------------
------2----|--3-----3-----2----0-----2----3----|------------------------
5----------|-----------------------------------|--------0-----1---------
-----------|-----------------------------------|--3---------------------
           68                                  69                  

                                                                   
----------------------|--1--10-8-----6--------------------|-------------
------------1----3----|-----11-10----8--------------------|-------------
------0---------------|-----------------------------------|-------------
----------------------|-----------------------------------|-------------
3---------------------|-----------------------------------|--1----------
----------------------|-------------------1-----3----5----|-------------
                      70                                  71       

                                                                  
---------------------------|-----------------------------------|--------
---------------------------|-----------------------------------|--------
---------------------------|-----------------------------------|--------
----------------------2----|--3-----3-----2----0-----2----3----|--------
3-----5----3----5----------|-----------------------------------|--------
---------------------------|-----------------------------------|--------
                           72                                  73 

                                          Dm                        
----------------------------------|--0----1-----------------|--0--------
----------------------------------|-------3-----------------|-----------
----------------------------------|--0----2-----------------|--0--------
----------------------------------|-------------------------|-----------
------0----------1-----1-----3----|-------------------------|-----------
3-----------3---------------------|-------------------------|-----------
                                  74                        76      

Dm                        Dm                        Dm                
1-----------------|--0----1-----------------|--0----1-------------------
3-----------------|-------3-----------------|-------3-------------------
2-----------------|--0----2-----------------|--0----2-------------------
------------------|-------------------------|---------------------------
------------------|-------------------------|---------------------------
------------------|-------------------------|---------------------------
                  78                        80                        

        Dm               
|--0----1---------------------------------------------------------------
|-------3---------------------------------------------------------------
|--0----2---------------------------------------------------------------
|-----------------------------------------------------------------------
|-----------------------------------------------------------------------
|-----------------------------------------------------------------------
82                       




     
Добавлено: 10.06.2013
Другие материалы по этой песне:
  • Аккорды и текст

Страница создана 10.06.2013
http://primanota.ru/sailormoon/sailor-team-no-theme-chords.htm
Привет, Гость.
Предлагаем пройти революционный курс по гитаре.
Подарок от PrimaNota.Ru, забирай!