PrimaNota.ru - самый крупный в мире бесплатный архив песенных текстов, аккордов, табулатур и нот


Sahara Beck - Brother Sister - таба, видео

Регистрация Запомнить меня
Войти через:  Facebook Google Twitter Vk Yandex Mail.ru

Sahara Beck - Brother Sister - таба, видео

Печатать
Просмотров: 62
-------------------------------------------------------------------------------
                             BROTHER SISTER - Sahara Beck 
-------------------------------------------------------------------------------
Tabbed by: Matt
E-mail: mattroberts1235@gmail.com

Tuning: Standard (Capo 4)

========================
Introduction/ Verses
     Am
e|---------------------------------------------------------------------------|
B|-----1-----1-----1-----1-----1-----1-----1-----1---------------------------|
G|-----2-----2-----2-----2-----2-----2-----0-----0---------------------------|
D|-----2-----2-----2-----2-----2-----2-----0-----0---------------------------|
A|--0-----0-----0-----0-----0-----0-----0-----2------------------------------|
E|---------------------------------------------------------------------------|
     C
e|---------------------------------------------------------------------------|
B|-----1-----1-----1-----1-----1-----1-----1-----1---------------------------|
G|-----0-----0-----0-----0-----0-----0-----0-----0---------------------------|
D|-----2-----2-----2-----2-----2-----2-----0-----0---------------------------|
A|--3-----3-----3-----3-----3-----3-----3-----2------------------------------|
E|---------------------------------------------------------------------------| (repeat)

========================
Chorus
    F                       C                                                       G
e|---------------------------------------------------------------------------|    ------|
B|---------------------------------------------------------------------------|    ------|
G|--2------------------------------------------------------------------------|    ------|
D|--3-----------------------2------------------------------------------------|    --0---|
A|--3-----------------------3------------------------------------------------|    --2---|
E|--------------------------3------------------------------------------------| x4 --3---|


========
Verse
========
Chorus
========
Instrumental/ doon da don   doon da da da....

e|---------------------------------------------------------------------------|
B|---------------------------------------------------------------------------|
G|---------------------------------------------------------------------------|
D|---------------------------------------------------------------------------|
A|--0--0---0-----0--0----2---3--3---3-----3--3----2--------------------------|
E|---------------------------------------------------------------------------| x4


========
Chorus
========
Ending
    Am
e|---------------------------------------------------------------------------|
B|-----1-----1-----1-----1-----1-----1-----1-----1---------------------------|
G|-----2-----2-----2-----2-----2-----2-----0-----0---------------------------|
D|-----2-----2-----2-----2-----2-----2-----0-----0---------------------------|
A|--0-----0-----0-----0-----0-----0-----0-----2------------------------------|
E|---------------------------------------------------------------------------|
    C
e|---------------------------------------------------------------------------|
B|-----1-----1-----1-----1-----1-----1-----1-----1---------------------------|
G|-----0-----0-----0-----0-----0-----0-----0-----0---------------------------|
D|-----2-----2-----2-----2-----2-----2-----0-----0---------------------------|
A|--3-----3-----3-----3-----3-----3-----3-----2------------------------------|
E|---------------------------------------------------------------------------| 



Can be played without a capo if you use your first finger to bar 4th fret. 
Добавлено: 27.06.2016
Вам также может быть интересно:
Другие материалы по этой песне:
  • Аккорды и текст

Страница создана 27.06.2016
http://primanota.ru/sahara-beck/brother-sister-chords.htm
Привет, Гость.
Предлагаем пройти революционный курс по гитаре.
Подарок от PrimaNota.Ru, забирай!