PrimaNota.ru - самый крупный в мире бесплатный архив песенных текстов, аккордов, табулатур и нот


Saga - Careful Where You Step - текст песни, таба, видео

Регистрация Запомнить меня
Войти через:  Facebook Google Twitter Vk Yandex Mail.ru

Saga - Careful Where You Step - текст песни, таба, видео

Печатать
Просмотров: 102
-------------------------------------------------------------------------------
                             Careful Where You Step - Saga
-------------------------------------------------------------------------------
Tabbed by: guiguig
E-mail:

Tuning: Standard

Intro                                                  x2
e|---------------------------------3-~--------3-------------|
B|---3--4-~-----3--4--6-~----4--6-------4--6----4--3-~------|
G|-5--------------------------------------------------------|
D|----------------------------------------------------------|
A|----------------------------------------------------------|
E|----------------------------------------------------------|


Verse                                                  x3
e|---------------------------------------------------------|
B|---------------------------------------------------------|
G|---------------------------------------------------------|
D|-5-------------------------------------------------------|
A|-5-let ring---5-5-5-3-5-~--3-5-6-5---3-3-----------------|
E|-3--------------------------------------6-6-5------------|

e|--------------------18/-----------------------------------------------------|
B|-----------------18--------15-15-15-13-15-~--13-15-16-15---13-13------------|
G|-------------/15-------------------------------------------------15-15-14---|
D|-5--------------------------------------------------------------------------|
A|-5-let ring-----------------------------------------------------------------|
E|-3--------------------------------------------------------------------------|


Break                                           x3
e|--------------------------------------------------|
B|------------------------8-8-8---8-9-8-6---8-------|
G|---------------5-~----------------------8---------|
D|-------6p5----------------------------------------|
A|--8-~------8-6------------------------------------|
E|--------------------------------------------------|

e|--------------------------------10-8-6---------------|
B|------------------------8-8-8----------10-8-6--------|
G|---------------5-~----------------------------8-7----|
D|------6p5--------------------------------------------|
A|-8-~------8-6----------------------------------------|
E|-----------------------------------------------------|


Verse
e|------------------------------------------------------------------------|
B|------------------------------------------------------------------------|
G|----------------5+---7+wh-----------------------------------------------|
D|-5----------------------------------------------------------------------|
A|-5-let ring-------------------5-5-5-3-5-~--3-5-6-5---3-3----------------|
E|-3----------------------------------------------------------6-6-5-------|

e|-------------------------------------------------------------------------|
B|-------------------------------------------------------------------------|
G|-------------------------------------------------------------------------|
D|-5-----------------------------------------------------------------------|
A|-5-let ring---5-5-5-3-5-~--3-5-6-5---3-3---------------------------------|
E|-3--------------------------------------6-6-5----------------------------|

e|-------------------------------------------------------------------------|
B|--------------15h18-18-18-18-18-18- ~------------------------------------|
G|-------------------------------------------------------------------------|
D|-5-----------------------------------------------------------------------|
A|-5-let ring--------------------------5-5-5-3-5-~--3-5-6-5---3-3----------|
E|-3---------------------------------------------------------------6-6-5---

e|--------------------18/----------------------------------------------------|
B|-----------------18--------15-15-15-13-15-~--13-15-16-15---13-13-----------|
G|-------------/15-------------------------------------------------15-15-14--|
D|-5-------------------------------------------------------------------------|
A|-5-let ring----------------------------------------------------------------|
E|-3-------------------------------------------------------------------------|


Instrumental parts
Part 1
e|-----------------------------------------------------15----------|
B|--------------------------16-15----15-16-18-15-16-18-------------|
G|--------------------------------17-------------------------------|
D|---1h0---3-0-1-3-------------------------------------------------|
A|-3-----3---------1-~---------------------------------------------|
E|-----------------------------------------------------------------|

e|-----------------------------------------------------------------|
B|---------------------------16-15----15-16-18-15------------------|
G|---------------------------------17-------------15-~-------------|
D|-----------------------------------------------------------------|
A|-----------------1-~---------------------------------------------|
E|-3-~-1-3-4-~-3-4-------------------------------------------------|

e|-----------------------------------------------------15----------|
B|--------------------------16-15----15-16-18-15-16-18-------------|
G|--------------------------------17-------------------------------|
D|---1h0---3-0-1-3-------------------------------------------------|
A|-3-----3---------1-~---------------------------------------------|
E|-----------------------------------------------------------------|

e|-----------------------------------------------------------------|
B|---------------------------16-15----15-16-18-15------------------|
G|---------------------------------17-------------15-~-------------|
D|-----------------------------------------------------------------|
A|-----------------1-~---------------------------------------------|
E|-3-~-1-3-4-~-3-4-------------------------------------------------|


Part 2                                                                   x2
e|-6p4-3-----3------------------------6p4-3------3---------------------------|
B|-------4h6-----3-4-6-4p3---3---------------4h6-------3-4-6-4-3-------------|
G|-------------5-----------5---3---------------------5-----------3-5---------|
D|-------------------------------3-------------------------------------------|
A|---------------------------------------------------------------------------|
E|---------------------------------------------------------------------------|

                                                                                         x2
e|-18p16-15-------15-------------------------------18p16-15-------15---------------------------|
B|----------16h18------15-16-18-16p15----15-----------------16h18-------15-16-18-16-15---------|
G|------------------17----------------17----15-----------------------17-----------------15-17--|
D|---------------------------------------------15----------------------------------------------|
A|---------------------------------------------------------------------------------------------|
E|---------------------------------------------------------------------------------------------|


Part 3
e|-----------------------------------------|
B|-----------------------------------------|
G|------------------------9+--7+--5+wh-----|
D|---1h0---3-0-1-3-------------------------|
A|-3-----3---------1-~---------------------|
E|-----------------------------------------|

e|-----------------------------------------|
B|-----------------------------------------|
G|-----------------------------------------|
D|-----------------------------------------|
A|-----------------1-~---------------------|
E|-3-~-1-3-4-~-3-4-------------------------|

e|------------------------15-13-15-11-13----11-------------------------------|
B|---------------------------------------15---13-15-11-13--------------------|
G|--------------------------------------------------------15-13-12-13-12-----|
D|---1h0---3-0-1-3-----------------------------------------------------------|
A|-3-----3---------1-~-------------------------------------------------------|
E|---------------------------------------------------------------------------|

e|----------------------------|
B|----------------------------|
G|----------------------------|
D|----------------------------|
A|-----------------1-~--------|
E|-3-~-1-3-4-~-3-4------------|

e|----------------------------|
B|----------------------------|
G|----------------------------|
D|---1h0---3-0-1-3------------|
A|-3-----3---------1-~--------|
E|----------------------------|

e|------------------------------------------------------|
B|------------------------------------------------------|
G|-----------------------------------------------8-~----|
D|------------------------------------------8h10--------|
A|----------------------------------8-10-12-------------|
E|-3-~-1-3-4-~-3-4----------8-10-12---------------------|

e|-----------------------------|
B|-----------------------------|
G|-----------------------------|
D|---1h0---3-0-1-3-------------|
A|-3-----3---------1-~---------|
E|-----------------------------|

e|------------------6-4-------------------------------|
B|----------------------8-6-4-------------------------|
G|----------------------------7-5-3-------------------|
D|----------------------------------6-5-3-------------|
A|----------------------------------------6-5-3-------|
E|-3-~-1-3-4-~----------------------------------6-4---|


Part 4                                                                    x4
e|---------------------------------------------------------------------------|
B|---------------------------------------------------------------------------|
G|----13-12------13-12-------13-12-~--------13-12-------13-12----------------|
D|-15------13-15-------13-15----------13-15-------13-15-------13-------------|
A|---------------------------------------------------------------------------|
E|---------------------------------------------------------------------------|


Part 5
e|---------------------------------------------------------------------------|
B|-------------------------------------------------------------------15------|
G|------------------------------------------------15-17--------15-17---------|
D|---3-wh--5-----------6-wh-6h8-5--------15-17-18--------17-18---------------|
A|-----------3-wh----6------------3------------------------------------------|
E|-1-------------3/4---------------------------------------------------------|


Solo
e|----------------------15wh--------------------------15wh-------------------|
B|-18wh-15wh--18wh-15wh---------18p15-18-18b-18p15-18------18-15-------------|
G|---------------------------------------------------------------------------|
D|---------------------------------------------------------------------------|
A|---------------------------------------------------------------------------|
E|---------------------------------------------------------------------------|

e|-----------------------18brp15-------------------18br-17-15----------------|
B|18p15-18-18b-18p15-18----------18---18p15-18-18b---------------------------|
G|---------------------------------------------------------------------------|
D|---------------------------------------------------------------------------|
A|---------------------------------------------------------------------------|
E|---------------------------------------------------------------------------|

e|----------15h17h18p17p15----------------15h17h20---------------------------|
B|-15h17h18----------------18p17-15h17h18----------18-17---------------------|
G|---------------------------------------------------------------------------|
D|---------------------------------------------------------------------------|
A|---------------------------------------------------------------------------|
E|---------------------------------------------------------------------------|

e|----20-18-------20-18-------20-18-------20-18-------20-18------------------|
B|-21-------20-21-------20-21-------20-21-------20-21-------20---------------|
G|---------------------------------------------------------------------------|
D|---------------------------------------------------------------------------|
A|---------------------------------------------------------------------------|
E|---------------------------------------------------------------------------|

e|----20-18-------20-18-------20-18-------20-18-------20-18-22b-22b----------|
B|-21-------20-21-------20-21-------20-21-------20-21------------------------|
G|---------------------------------------------------------------------------|
D|---------------------------------------------------------------------------|
A|---------------------------------------------------------------------------|
E|---------------------------------------------------------------------------|

End
e|-------------------|
B|-------------------|
G|-8---8-------------|
D|-8-8-8-8--10-11----|
A|-6-8-6-8--10-11----|
E|---6---6--8--9-----|

i hope you'll enjoy it
************************************

| /   slide up
| \   slide down
| h   hammer-on
| p   pull-off
| ~   vibrato
| +   harmonic
| x   Mute note
| b   Bend
| pb  Pre-bend
| br  Bend release
| pbr Pre-bend release
| brb Bend release bend
| wh  Whammy bar
************************************
Добавлено: 02.08.2015
Другие материалы по этой песне:
  • Аккорды и текст

Страница создана 21.05.2012
http://primanota.ru/saga/careful-where-you-step-chords.htm
Привет, Гость.
Предлагаем пройти революционный курс по гитаре.
Подарок от PrimaNota.Ru, забирай!