PrimaNota.ru - самый крупный в мире бесплатный архив песенных текстов, аккордов, табулатур и нот


Saga - Believe - текст песни, таба, видео

Регистрация Запомнить меня
Войти через:  Facebook Google Twitter Vk Yandex Mail.ru

Saga - Believe - текст песни, таба, видео

Печатать
Просмотров: 135
SAGA – Believe
from the Network (2004) album
tuning 1/2 step down

Here's a little tune from SAGA's ultimate masterpiece for you...


Piano intro:

e-------------5-----3--1--|-------1-------------------|
B-------3-----------------|----3-----3--5--6-5--3-----|
G----2--------------------|-3----------------------5--|
D-0--------0-----0--------|---------------------------|
A-------------------------|---------------------------|
E-------------------------|---------------------------|
  Dm                       Bb          Am

e-------------5-----3--1-|----------5--3--5--3-----|
B-------3----------------|-------6--------------5--|
G----2-------------------|----7--------------------|
D-0--------0-----0-------|-8-----------------------|
A------------------------|-------------------------|
E------------------------|-------------------------|
  Dm                       Bb          C

e-------------5-----3--1--|-------1-------------------|
B-------3-----------------|----3-----3--5--6-5--3-----|
G----2--------------------|-3----------------------5--|
D-0--------0-----0--------|---------------------------|
A-------------------------|---------------------------|
E-------------------------|---------------------------|
  Dm                       Bb          Am

e-------------5-----3--1-|----------5--------------|
B-------3----------------|-------6-----8--10--8----|
G----2-------------------|----7--------------------|
D-0--------0-----0-------|-8-----------------------|
A------------------------|-------------------------|
E------------------------|-------------------------|
  Dm                       Bb          C

Verse 1:

Dm
Talk to me 
Bb             F              Am
Tell me how it feels to be misunderstood 
Dm
Talk to me 
Bb                 F              Am    
Explain to me what life is like inside your world 

Dm               Bb
But don't worry, there's no hurry 
F             Am
My impatience knows no fury 
Dm              Bb
So don't worry, there's no hurry 
Dm   D5/C Bbmaj7        Am
Take your time, tell me if you're ready 


Chorus 1:

Bb      Gm
Come to me 
       C          Am
I will give and receive 
      Bb          Gm     Csus4   C
All I need is for you to believe 


Verse 2:

Talk to me 
When it feels as though the walls are closing in 
Talk to me 
Day or night, I understand the shape you're in 

But don't worry, there's no hurry 
My impatience knows no fury 
So don't worry, there's no hurry 
Take your time, tell me if you're ready 


Chorus 2:

Come to me 
I will give and receive 
All I need is for you to believe 
Come to me 
I can help you feel free 
Take my hand, understand that I believe


Outro:

Bb    Gm    C     Am

      Bb          Gm     Csus4   C
All I need is for you to believe 


funny chords:
D5/C – x3x23x
Bbmaj7 – x1323x
Csus4 - x3556x
Добавлено: 08.05.2012
Другие материалы по этой песне:
  • Аккорды и текст

Страница создана 08.05.2012
http://primanota.ru/saga/believe-chords.htm
Привет, Гость.
Предлагаем пройти революционный курс по гитаре.
Подарок от PrimaNota.Ru, забирай!