PrimaNota.ru - самый крупный в мире бесплатный архив песенных текстов, аккордов, табулатур и нот


Saez - Betty - таба, видео

Регистрация Запомнить меня
Войти через:  Facebook Google Twitter Vk Yandex Mail.ru

Saez - Betty - таба, видео

Печатать
Просмотров: 131
Уроки эстрадного вокала в Санкт-Петербурге
Авторы музыки: Damien Saez
Авторы текста: Damien Saez
Betty
Damien SAEZ
Messina
Tabbed by Quentin



Accords :
Bm :     X24432
A :        002220
G :        355433
Fm :     244322

[Pincer les notes]
  Bm          A          G                        Fm
|----------------------|-------------------------------------------------------------|
|---3-3----2-2---------|---------2-2----2-2----3-3----2-2----------------------------|
|---4-4----2-2----4-4--|--4-4----3-3----3-3----3-3----3-3----------------------------|
|-4------2--------5-5--|--5-5--4------4------4------4--------------------------------|
|---------------5------|5------------------------------------------------------------|
|----------------------|-------------------------------------------------------------|
Tu pourras bien saigner mon cœur jusqu'au cœur de mon âme
pour y planter la lame tu pourras bien Betty

  Bm          A          G                        Fm
|----------------------|-------------------------------------------------------------|
|---3-3----2-2---------|----------2-2----2-2----2-2----2-2---------------------------|
|---4-4----2-2----4-4--|---4-4----3-3----3-3----3-3----3-3---------------------------|
|-4------2--------5-5--|---5-5--4------4------4------4-------------------------------|
|---------------5------|-5-----------------------------------------------------------|
|----------------------|-------------------------------------------------------------|
ouais tu pourras oui déchirer ma chère sur la peau en lambeaux
aller de port en port me boire jusqu'à la lie
quand on couchait la nuit jusqu'au lever du jour chevauchant des obliques
d'où on ne revient pas l'amour comme à la guerre

tu pourras bien jouer encore les jeux de ceux qui font brûler l'essence
qui font hurler silence puis qui donnent du sens à nos nuits


[Gratter les notes]
  Bm          A          G                        Fm
|----------------------|-------------------------------------------------------------|
|---3-3----2-2---------|---------2-2----2-3----3-2----2-2----------------------------|
|---4-4----2-2----4-4--|--4-4----3-3----3-3----3-3----3-3----------------------------|
|-4------2--------5-5--|--5-5--4------4------4------4--------------------------------|
|---------------5------|5------------------------------------------------------------|
|----------------------|-------------------------------------------------------------|
et si l'amour est noir noir noir
aussi noir que Betty

allez va pour le désespoir
de mes nuits chez Betty

et si s'aimer c'est noir noir noir
si s'aimer c'est Betty

  Bm          A          G                        Fm
|----------------------|-------------------------------------------------------------|
|---3-3----2-2---------|-----------2-------------------------------------------------|
|---4-4----2-2----4-4--|--4-4----3---------------------------------------------------|
|-4------2--------5-5--|--5-5--4-----------------------------------------------------|
|---------------5------|5------------------------------------------------------------|
|----------------------|-------------------------------------------------------------|

allez va pour y voir l'espoir
de la revoir me dire

vas-y ressers à boire

|----------------------|-------------------------------------------------------------|
|----------------------|-------------------------------------------------------------|
|----------------------|-------------------------------------------------------------|
|----------------------|-------------------------------------------------------------|
|-2-2-2--0-0-0---------|-------------------------------------------------------------|
|---------------3-3-3--|-2-2-2--0-0-0---3-3-3--2-2-2-3-2-2-2--0-2-2-2--0-2-2-2-------|
vas-y ressers à boire

tu pourras bien t'oublier dans des corps de la nuit aux aurores
ouais dans tant d'autres lits tu pourras bien Betty

bien sûr que je ramperai à tes pieds le cœur ensanglanté
de mon âme aveuglée qui redemandra toujours un peu plus d'amour

ouais Betty tu pourras oui m'allumer encore comme on allume un feu pour allumer la nuit 
juste avant de l'éteindre
Betty ne m'éteins pas moi je resterai là sans un mot sans un bruit à écouter les cris 
qu'avec d'autres que moi toi tu feras

Betty c'est l'Amérique mais la bêtise en moins
c'est comme une nuit d'amour oui mais sans lendemain, c'est comme faire un sourire à la 
vie Betty

Betty c'est la beauté, Betty c'est infini, Betty c'est liberté
Betty c'est poésie, ouais Betty c'est Betty

|----------------------|-------------------------------------------------------------|
|----------------------|-------------------------------------------------------------|
|-4-4--2-2-2-----------|-------------------------------------------------------------|
|-4-4--2-2-2--5-5-5--4-|-4-5-4--4-4-0--4-4-4-0--4-4-4--------------------------------|
|-2-2--0-0-0--5-5-5--4-|-4-5-4--4-4-0--4-4-4-0--4-4-4--------------------------------|
|-------------3-3-5--2-|-2-3-2--2-2-0--2-2-2-0--2-2-2--------------------------------|


et si l'amour est noir noir noir
aussi noir que Betty

allez va pour le désespoir
de la revoir me dire

allez ressers à boire
allez ressers à boire…

allez ressers à boire
allez ressers à boire…

ouais..hé..hé..hé..
hé.hé.hé

ouais..hé..hé..hé..
…

|----------------------|-------------------------------------------------------------|
|----------------------|-------------------------------------------------------------|
|-4~---2~--------------|-------------------------------------------------------------|
|-4~---2~-----5~----4~-|---5-4-4-4-0--4-4-4-0--4-4-4---------------------------------|
|-2~---0~-----5~----4~-|---5-4-4-4-0--4-4-2-0--4-4-4---------------------------------|
|-------------3~----2~-|---3-2-2-2-0--2-2-2-0--2-2-2---------------------------------|
…
ouais Betty dans les draps
oh oui d'autres que moi toi tu trouves le port

|----------------------|-------------------------------------------------------------|
|----------------------|-------------------------------------------------------------|
|----------------------|-------------------------------------------------------------|
|----------------------|-------------------------------------------------------------|
|-2-2-2--0-0-0---------|-------------------------------------------------------------|
|---------------3-3-3--|-2-2-2--0-0-0---3-3-3--2-2-2-3-2-2-2--0-2-2-2--0-2-2-2-------|
ouais Betty dans les draps
c'est les autres qui sont les rois des amours mis à mort








|-------------------------|-------------------------------------------------------------|
|-------------------------|-------------------------------------------------------------|
|-------------------------|-------------------------------------------------------------|
|-9-9-9---7-7-7-----------|-------------------------------------------------------------|
|----------------10-10-10-|-9-9-9-10-9-9-9--7-9-9-9-------------------------------------|
|-------------------------|-------------------------------------------------------------|


Betty c'est l'Amérique, mais la bêtise en moins
c'est comme une nuit d'amour, ouais mais sans lendemain, c'est comme faire un sourire à 
la vie Betty

Betty c'est la beauté, Betty c'est infini
Betty c'est liberté, Betty c'est poésie

|------------------------------|--------------------------------------------------------|
|-15---------14--------12------|-8-7-7-7--8-7-7-7--8------------------------------------|
|----14-14------14-14-----12-12|--------------------------------------------------------|
|------------------------------|--------------------------------------------------------|
|------------------------------|--------------------------------------------------------|
|------------------------------|--------------------------------------------------------|

et si l'amour est noir noir noir
aussi noir que Betty

allez va pour le désespoir
de la revoir me dire

|----------------------|-------------------------------------------------------------|
|----------------------|-------------------------------------------------------------|
|-4-4--2-2-2-----------|-------------------------------------------------------------|
|-4-4--2-2-2--5-5-5--4-|-4-5-4--4-4-0--4-4-4-0--4-4-4--------------------------------|
|-2-2--0-0-0--5-5-5--4-|-4-5-4--4-4-0--4-4-4-0--4-4-4--------------------------------|
|-------------3-3-5--2-|-2-3-2--2-2-0--2-2-2-0--2-2-2--------------------------------|


et si l'amour est noir noir noir
aussi noir que Betty

allez va pour le désespoir
de la revoir me dire

et si l'amour est noir noir noir
si l'amour c'est Betty

et si s'aimer c'est noir noir noir
si s'aimer c'est Betty

allez ressers à boire
allez ressers à boire

allez ressers à boire
allez ressers à boire

|----------------------|-------------------------------------------------------------|
|----------------------|-------------------------------------------------------------|
|-4~---2~--------------|-------------------------------------------------------------|
|-4~---2~-----5~----4~-|---5-4-4-4-0--4-4-4-0--4-4-4---------------------------------|
|-2~---0~-----5~----4~-|---5-4-4-4-0--4-4-2-0--4-4-4---------------------------------|
|-------------3~----2~-|---3-2-2-2-0--2-2-2-0--2-2-2---------------------------------|

allez ressers à boire
allez ressers à boire

(Répéter jusqu'à la fin ces accords)
Добавлено: 07.07.2013
Другие материалы по этой песне:
  • Аккорды и текст

Страница создана 16.06.2013
http://primanota.ru/saez/betty-chords.htm
Привет, Гость.
Предлагаем пройти революционный курс по гитаре.
Подарок от PrimaNota.Ru, забирай!