PrimaNota.ru - самый крупный в мире бесплатный архив песенных текстов, аккордов, табулатур и нот


Sadus - Davy jones - таба, видео

Регистрация Запомнить меня
Войти через:  Facebook Google Twitter Vk Yandex Mail.ru

Sadus - Davy jones - таба, видео

Печатать
Просмотров: 108


|       ||      |
                                  |------LYRICS-----|
                                   |_______||______|


Sailing along the choppy waters
Riding out the storm
Held prisoner by pirates
I walk the plank in the morn

My execution is coming
They tie the weights onto my legs
And soon I will be resting
In a cold and watery grave

In Davy Jones's locker
Six million feet under the sea
You'll find underwater
You'll find, you'll find me

I lived on the sea
I'll die there too
I'll swim with the fishes
In my aquatic tomb

Through the sea I'm falling
The water rushes into my lungs
Until I hit rock bottom
Of the infernal lagoon

In Davy Jones's locker
Six million feet under the sea
You'll find underwater
You'll find, you'll find me

In Davy Jones's locker
Six million feet under the sea
You'll find underwater
You'll find, you'll find me

                                    _______________
                                   |       ||      |
                                   |--GUITAR TABS--|
                                   |_______||______|

PROGRESSION
-----------
Riff 1 x2
Riff 2 x2
Riff 3 x2
Riff 4 x4
Riff 5 x1
Riff 6 x2
Riff 7 x1
Riff 8 x2
RIff 9 x4
Riff 5 x1
Riff 6 x2
Riff 7 x1
Riff 8 x2
RIff 9 x1
Riff 8 x2
RIff 9 x4

RIFF 1
E|-------------------------------------------------------------------------------------------------|
B|-------------------------------------------------------------------------------------------------|
G|-------------------------------------------------------------------------------------------------|
D|-2------------------2------------------2---------------------------------------------------------|
A|-2------------------2------------------2----------------------3-3-----3-3------------------------|
e|-0-0-0--0-0--0-0-1--0-0-0--0-0--0-3-2--0-0-0--0-0--0-0-1--1-1-1-1-1-1-1-1------------------------|
     ...  ...  .....    ...  ...  .....    ...  ...  .....  ...     ...

RIFF 2
E|-------------------------------------------------------------------------------------------------|
B|-------------------------------------------------------------------------------------------------|
G|-------------------------------------------------------------------------------------------------|
D|-2--------5-7--2--------5-3--2--------5-7-----8-7-5----------------------------------------------|
A|-2--------5-7--2--------5-3--2--------5-7-----8-7-5----------------------------------------------|
e|-0-0-0--0------0-0-0--0------0-0-0--0------0-----------------------------------------------------|
     ...  .        ...  .        ...  .      .

RIFF 3
E|-------------------------------------------------------------------------------------------------|
B|-------------------------------------------------------------------------------------------------|
G|-------------------------------------------------------------------------------------------------|
D|-2------------------2-----2----------------------------------------------------------------------|
A|-2------------------2-----2-------5-----5-----7p0------------------------------------------------|
e|-0-0000000000000000-0-000-0-00000-3-333-3-333-5p0------------------------------------------------|
     ................   ...   .....   ...   ...

RIFF 4
E|-------------------------------------------------------------------------------------------------|
B|-------------------------------------------------------------------------------------------------|
G|-------------------------------------------------------------------------------------------------|
D|-2---------2---------2---------------------------------------------------------------------------|
A|-2-----9-9-2-----8-8-2-----7-7-----5-5-----------------------------------------------------------|
e|-0-000-7-7-0-000-6-6-0-000-5-5-333-3-3-----------------------------------------------------------|
     ...       ...       ...     ...

RIFF 5
E|-------------------------------------------------------------------------------------------------|
B|-------------------------------------------------------------------------------------------------|
G|-------------------------------------------------------------------------------------------------|
D|-2-------------------------------2---------------------------------------------------------------|
A|-2-------------------------------2---------------------------------------------------------------|
e|-0-000-0-0-000-0-0-000-0-333-555-0-000-0-0-000-0-0-000-0-666-555---------------------------------|
     ... . . ... . . ... . ... ...   ... . . ... . . ... . ... ...

E|-------------------------------------------------------------------------------------------------|
B|-------------------------------------------------------------------------------------------------|
G|-------------------------------------------------------------------------------------------------|
D|-2-----------------------------------------------------------------------------------------------|
A|-2-----------------------------------5-----5---5------4---555-444--------------------------------|
e|-0-000-0-0-000-0-0-000-0-333-555-333-3-333-3-3-3--222-2-2-333-222--------------------------------|
     ... . . ... . . ... . ... ... ...   ...   .    ...   . ... ...

RIFF 6
E|-------------------------------------------------------------------------------------------------|
B|-------------------------------------------------------------------------------------------------|
G|--------------------------------------------------5-5h7-6-6h7------------------------------------|
D|-2---------------2-----------------2--------------5-5h7-6-6h7-5-3--------------------------------|
A|-2-------------5-2-------------4-3-2------------5-5-----6-6---5-3--------------------------------|
e|-0-000-000-00--3-0-000-000-00--2-1-0-000-000-00-3------------------------------------------------|
     ... ... ..      ... ... ..        ... ... ..

RIFF 7
E|-------------------------------------------------------------------------------------------------|
B|-------------------------------------------------------------------------------------------------|
G|-5-5h7-6-6h7------7-7h9-8-8h10-------------------------------------------------------------------|
D|-5-5h7-6-6h7-5-3--7-7h9-8-8h10-7-5---------------------------------------------------------------|
A|-5-5---6-6---5-3--7-7---8-8----7-5---------------------------------------------------------------|
e|-------------------------------------------------------------------------------------------------|

RIFF 8
E|-------------------------------------------------------------------------------------------------|
B|-------------------------------------------------------------------------------------------------|
G|-------------------------------------------------------------------------------------------------|
D|-9-----------9-----------10---9------------------------------------------------------------------|
A|-7-777-7-7-7-7-777-7-7-7----7---7--9-----------10------------12---9h10---------------------------|
e|-----------------------------------7-777-7-7-7-8--888-8-8-8-----8--------------------------------|
     .........   .........    .   .    .........    .........     .

RIFF 9
E|-------------------------------------------------------------------------------------------------|
B|-------------------------------------------------------------------------------------------------|
G|-------------------------------------------------------------------------------------------------|
D|------2-------2------------2-------2-------------------------------------------------------------|
A|------2-------2--4-3-------2-------2----------------------------------------------------------|
e|-0000-0--0000-0--2-1--0000-0--0000-0-------------------------------------------------------------|
   ....    ....         ....    ....



Добавлено: 05.09.2013
Другие материалы по этой песне:
  • Аккорды и текст

Страница создана 05.09.2013
http://primanota.ru/sadus/davy-jones-chords.htm
Привет, Гость.
Предлагаем пройти революционный курс по гитаре.
Подарок от PrimaNota.Ru, забирай!