PrimaNota.ru - самый крупный в мире бесплатный архив песенных текстов, аккордов, табулатур и нот


Sacrety - Its Gonna Be Good - таба, видео

Регистрация Запомнить меня
Войти через:  Facebook Google Twitter Vk Yandex Mail.ru

Sacrety - Its Gonna Be Good - таба, видео

Печатать
Просмотров: 108
These are my tabs for the Song "It's Gonna Be Good" by Sacrety. Enjoy playing!

0:00 - 0:09
e|--------------------------------------------------|
H|--------------------------------------------------|
G|--------------------------------------------------|
D|444-444-444-77-0000-9999-444-444-444-77-0000-2222-|
A|444-444-444-77-0000-9999-444-444-444-77-0000-2222-|
D|444-444-444-77-0000-9999-444-444-444-77-0000-2222-|

0:10 - 0:27
just keyboard + drums playing

0:28 - 0:51
e|-------------------------------------------------------------------------|
H|-------------------------------------------------------------------------|
G|7~~~-------------777777----------777777----------777777--7777777799999999|
D|7~~~2~~~-7777779977777799777777997777779977777799777777997777777799999999|
A|5~~~2~~~-7777779955555599777777995555559977777799555555995555555577777777|
D|0~~~2~~~-77777799000000997777779900000099777777990000009900000000--------|

0:52 - 1:01
e|--------------------------------------------------|
H|--------------------------------------------------|
G|--------------------------------------------------|
D|444-444-444-77-0000-9999-444-444-444-77-0000-2222-|
A|444-444-444-77-0000-9999-444-444-444-77-0000-2222-|
D|444-444-444-77-0000-9999-444-444-444-77-0000-2222-|

1:02 - 1:20
just keyboard + drums playing

1:21 - 1:44
e|-------------------------------------------------------------------------|
H|-------------------------------------------------------------------------|
G|7~~~-------------777777----------777777----------777777--7777777799999999|
D|7~~~2~~~-7777779977777799777777997777779977777799777777997777777799999999|
A|5~~~2~~~-7777779955555599777777995555559977777799555555995555555577777777|
D|0~~~2~~~-77777799000000997777779900000099777777990000009900000000--------|

1:45 - 2:13
e|--------------------------------------------------------------------------|
H|--------------------------------------------------------------------------|
G|--------------------------------------------------------------------------|
D|4~~~--------------------------------44-4444-44-4444-47-00-0000-00-0000-00-|
A|4~~~--------------------------------44-4444-44-4444-47-00-0000-00-0000-00-|
D|4~~~--------------------------------44-4444-44-4444-47-00-0000-00-0000-00-|

     |just keyboard + drums playing| |------------------p.m.----------------|

2:14 - 2:56
e|-------------------------------------------------------------------------|
H|-------------------------------------------------------------------------|
G|7~~~--79---------777777----------777777----------777777--7777777799999999|
D|7~~~2~---7777779977777799777777997777779977777799777777997777777799999999|
A|5~~~2~---7777779955555599777777995555559977777799555555995555555577777777|
D|0~~~2~---77777799000000997777779900000099777777990000009900000000--------|

e|----------------------------------------------------------------|
H|----------------------------------------------------------------|
G|--------777777----------777777----------777777--7777777799999999|
D|7777779977777799777777997777779977777799777777997777777799999999|
A|7777779955555599777777995555559977777799555555995555555577777777|
D|77777799000000997777779900000099777777990000009900000000--------|

2:57 - 3:11
e|-------------------|
H|-------------------|
G|-------------------|
D|444-444-444-77-0~~~|
A|444-444-444-77-0~~~|
D|444-444-444-77-0~~~|

MFJ
Добавлено: 29.09.2013
Другие материалы по этой песне:
  • Аккорды и текст

Страница создана 29.09.2013
http://primanota.ru/sacrety/its-gonna-be-good-chords.htm
Привет, Гость.
Предлагаем пройти революционный курс по гитаре.
Подарок от PrimaNota.Ru, забирай!